acordes.cc 
 letras y acordes > j > juanes > no siento penas diccionario de acordes 
No siento penas de Juanes
AUTOR: Juanes
Juanes Tabs
LaCuerda.net
imprimir No siento penas de Juanes 
Intro   <<Chelos>>    Riff 1 (2)   <<Chelos>>

Riff 1
   E                               B7(1)
e-----0-------0-------0-------0-------0-------0-------0-------0----
B----0-0-----0-0-----0-0-----0-0-----0-0-----0-0-----0-0-----0-0---
G---1---1---1---1---1---1---1---1---2---2---2---2---2---2---2---2--
D--2-------4-------2-----------------------4-------1---------------
A--------------------------2-------2-----------------------2-------
E------------------------------------------------------------------

Riff 2
  G#m       A       B
e--------------------------------------
B-----4--------5--------7--------7-----
G----4-4------6-6------8-8------8-8----
D---6---6----7---7----9---9----9---9---
A--------------------------------------
E--4--------5--------7--------7--------

                                                 B7(1)    221200

Riff 1  (2)
E                  B7(1)
Cuando tú me dices, a media voz, que me amas,
E                     B7(1)
me siento tan sublime, como el tibio sol, de la mañana.

PRE
Riff 2  (2)
 G#m              A               B
Y esto es lo que tú me haces sentir,
  G#m            A         B
desde el día en que te conocí.

Cuando tú me dices, a media voz, que te ame,
me siento invencible, como el huracán, más temible.

PRE

CORO
            E
No siento penas ni dolores de cabeza,
B
ni confusión de ninguna naturaleza,
 E
ni tampoco siento más tristeza,
 B
sólo siento amor, sólo siento amor.
G#m              A        B
Por supuesto es todo para ti,
 G#m             A         B
desde el día en que te conocí.

SOLO  (1:49)   E  B   E  B      G#m   A   B   G#m   A   B


Cuando tú me dices, a media voz, que no me vaya,
me siento indestructible, como un cañón, de metralla.

PRE

CORO  (2)

FINAL    Riff 1   Riff 3

Riff 3
   E/F#
e-------------0-----
B-----------0-------
G---------1---------
D-------4-----------
A-----2-------------
E---0---------------


E/F#     024100
Este fichero es trabajo propio de su transcriptor y representa su interpretación personal de la canción. El material contenido en esta página es para exclusivo uso privado, por lo que se prohibe su reproducción o retransmisión, así como su uso para fines comerciales.

Fuente: No siento penas: Letra y Acordes (LaCuerda.net)


Otras partituras que podrían interesarte: