acordes.cc 
 letras y acordes > c > cristian castro > no podrás diccionario de acordes 
No podrás de Cristian Castro
AUTOR: P. Skrabeak, Alex Zepeda
Cristian Castro Tabs
LaCuerda.net
imprimir No podrás de Cristian Castro 
Intro
E|--3(4)-|------|-1(4)-|------|------|------|--------|
A|-------|-3(4)-|------|-1(4)-|------|-3(4)-|-33-31--|
D|-------|------|------|------|-1(8)-|------|--------|
G|-------|------|------|------|------|------|--------|

Tal vez te olvides
E|--3(4)-|------|-1(4)-|------|------|------|--------|
A|-------|-3(4)-|------|-1(4)-|------|-3(4)-|-33-31--|x2
D|-------|------|------|------|-1(8)-|------|--------|
G|-------|------|------|------|------|------|--------|

de una promesa
E|--333-|-3----|--111-|-1----|-------|------|--------|
A|------|--333-|-3----|--111-|-1-----|--333-|-1(32)--|
D|------|------|------|------|--1(7)-|-1----|--------|
G|------|------|------|------|-------|------|--------|

Cada Momento
E|---------|------|-3(8)-|------|--------|
A|--1(24)--|-0(4)-|------|-3(8)-|--------|x2
D|---------|------|------|------|-3(16)--|
G|---------|------|------|------|--------|

No podras
E|---------|------|------|------|--------|
A|--6(16)--|-5(8)-|------|------|--------|x3
D|---------|------|-5(4)-|-3(4)-|-3(16)--|
G|---------|------|------|------|--------|

Un eterno
E|-------|------|--------|
A|--6(8)-|------|-1(32)--|
D|-------|-3(8)-|--------|
G|-------|------|--------|

y se repiten de acuerdo a la cancion ps

atte miauricio gatolar
Este fichero es trabajo propio de su transcriptor y representa su interpretación personal de la canción. El material contenido en esta página es para exclusivo uso privado, por lo que se prohibe su reproducción o retransmisión, así como su uso para fines comerciales.

Fuente: No podrás: Letra y Acordes (LaCuerda.net)


Otras partituras que podrían interesarte: