acordes.cc 
 letras y acordes > r > rezaka > no importa diccionario de acordes 
No importa de Rezaka
AUTOR: Marko turok
Rezaka Tabs
LaCuerda.net
imprimir No importa de Rezaka 
Leandro Ravello M.(LeanWean)  LAndo!'

Esta es una canción re-contra personal diría yo/*ya
que cuando por primera vez la escuche me hizo recordar
viejos tiempos cuando perseguía a la (pollo)”Edelei”/*
tiempo pasado y te llega al bobo de inmediato/*si sabes
entender lo que el pata trata de expresar con esta canción…
'·/*lizet no te pongas celosa!'

    D5          D5/4            B5                G5              A5           (
G/--7--9--11--9--12----11--9--7--7--9---11--14---12--11---12---11----9--7------
D/--x--x---x--x--x-----x---x--x--x--x---x----x----x---x----x----x----x--x-(2 vec
A/--5--7---9--7--10----9---7--5--5--7---9---12---10---9---10----9----7--5 ----

D5           D5/4             B5       G5            A5 (BAJO)solo LA 1era estro
No importa si es tarde esta vez, si mañana cambiaras de idea
D5           D5/4             B5             G5       A5
No importa si te vuelvo a ver, si las cosas fueran como antes
G5           A5                 D5                D5/4        B5    G5
Intentaría volver otra vez  pero tú haz cambiado y haz olvidadoooo……    el verda

Este es un riff… q hay en medio de la canción háganlo rápido y les va a salir ig
   D5---D5/4                       B5         G5              A5
G/-7-/--11--/--9--------------- /-14---12--11--12--12--7--9--7-/*-/7-/- 11-/-9-/
D/-x-/--x--/---x-(6 veces)/----/--x----x---x----x---x--x--x--x-/*/-x-/--x--/-x- 
A/-5-/--9--/---7----------------/-12---10--9-- 10--10--9--7--5-/*/-5/---9--/-7-/

D5                D5/4             B5           G5        A5
No hay razones que me hagan volver a intentar continuar esa historia
D5                    D5/4            B5             G5       A5
Solo hay canciones que hacen recordar esos momentos q antes pasaron
G5           A5                D5                D5/4        B5   G5            
Intentaría volver otra vez pero tu haz cambiado y haz olvidadooooo…. ......el ve
            D5/4                  B5          G5         A5             D5
Que una vez paso que el tiempo se llevo esas palabras que alguien olvido
            D5/4                  B5           G5         A5
Que una vez paso que el tiempo se llevo esas palabras que alguien olvido..(1 vez
   D5          D5/4            B5                G5              A5
G/-7-7--9--11--9--12----11--9--7--7--9---11--14---12--11---12---11----9--7------
D/-x-x--x---x--x--x-----x---x--x--x--x---x----x----x---x----x----x----x--x-(2 ve
A/-5-5--7---9--7--10----9---7--5--5--7---9---12---10---9---10----9----7--5 ----

    G5           A5             D5                D5/4              B5 G5
Intentaría volver otra vez pero tu haz cambiado y lo haz olvidadooooo….

   D5          D5/4            B5                G5              A5
G/-7-7--9--11--9--12----11--9--7--7--9---11--14---12--11---12---11----9--7------
D/-x-x--x---x--x--x-----x---x--x--x--x---x----x----x---x----x----x----x--x-(2 ve
A/-5-5--7---9--7--10----9---7--5--5--7---9---12---10---9---10----9----7--5 ----

!'depues ak ay un juego de 8tavas ya ustedes saquenlas es facilicimo son kon
los mismos puntos de arriba!'y ya esta toda la kancion!'

 -------------------------------------------------------------------------------

!'Inspirada solo x.......!'!' liz-liz!'pa q ya no me este molestando kon q le en
Bueno aqui tienen una cancionsita de uno de mis grupos favoritos Rezakita!'
y puxa solo quiero mandar saludos a toda la Promo Vanhelsing!del Año
pasado del kole'Los Educadores!'weno y un saludazo muy especial a mi amiga Lite!
la chik kaleta!'/*que la quiero muxo y que la tengo en mi korazon komo a ninguna
y no save kuanto le agradesko lo muxo q ha hecho x mi!'y que le enseño guitarra 
pasado!'y que siempre me apoya en todo es mi hincha numero 1!'y weno px!'habla k
revancha de pinpong!'jeje!'!'gracias a ella salgo adelante!'/*weno ps!'saludos a
gente q apoya la escena!'y weno px!'solo esperen un tiempito q mi grupo!'ya va e
la escena lokal tambien!'weno ps si tienen alguna duda o konsulta sobre las tabl
Rezaka!'solo scribanme!'
         !'!'weno tiox ahi nos vemos!'
Este fichero es trabajo propio de su transcriptor y representa su interpretación personal de la canción. El material contenido en esta página es para exclusivo uso privado, por lo que se prohibe su reproducción o retransmisión, así como su uso para fines comerciales.

Fuente: No importa: Letra y Acordes (LaCuerda.net)


Otras partituras que podrían interesarte: