acordes.cc 
 letras y acordes > r > rojo > no hay condenación diccionario de acordes 
No Hay Condenación de Rojo
AUTOR: Emmanuel Espinosa
Rojo Tabs
LaCuerda.net
imprimir No Hay Condenación de Rojo 
Hola esta mi primer transcripciòn debido a que en atame no
 se encuentran los acordes ni el intro yo se los voy a pasar
USENLOS PARA ALABAR A DIOS NO PARA LUCIMIENTO NI VANAGLORIA 
PROPIA

INTRO
E------------------------------------------------------
B------------------------------------------8-----------
G--9p7---9-7--9-7------------9p7---9-7--------9--------
D------9----------9-7------------9-----7h9-------------
A---------------------10-7-----------------------------
E------------------------------------------------------

E------------------------------------------------------
B------------------------------------------8-----------
G--9p7---9-7--9-7------------9p7---9-7--------9-7------
D------9----------9-7------------9-----7h9--------9-7---
A---------------------10-7----------------------------10-7


(en este pedazo se toca el acorde  marcado una vez, despues rem
trasas un traste el tono y des pues lodeslizas hacia la posicion 
original,escuchen la cancion para que agarren el ritmo)


MI m                 LA7    MIm          LA7
Aplastado por la duda, no se si deba seguir 
MIm                      LA7 MIm            LA7         
le he fallado tantas veces no se acordara de mi 
LAm                    RE          LAm                 RE
no vivas frustado en la oscurida su sangre te limpia eres vivo
ya

  SOL            RE                      MIm                DO    RE     
//No hay condenacion para el que esta en Jesus ,no hay condenacion//

Se repite el intro

MIm                 LA7 MIm                  La7/Lab7 MIm            LA7 
He escuchado esas voces que me acusan sin parar , ha creido lo que dicen 
MIm                  LA7
pero aqui se va acabar
LAm                    RE                 LAm                 RE    
El que esta en Jesus es nueva creacion su sangre te limpia eres libre ya
 
///coro///

instrumentral

///coro///

se toca el intro otra vez.

Mejor les explico lo del principio con un Tab

  MIm RE#m s MIm         LA7 Lab7/la7
E--7----6s7            E--X--x-x
A--7----6s7            A--X--x-x 
D--9----8s9            D--X--x-x 
G--9----8s9            G--9--8s9  
B--8----7s8            B--8--7s8 
E--7----6s7            E--9--8s9
Este fichero es trabajo propio de su transcriptor y representa su interpretación personal de la canción. El material contenido en esta página es para exclusivo uso privado, por lo que se prohibe su reproducción o retransmisión, así como su uso para fines comerciales.

Fuente: No Hay Condenación: Letra y Acordes (LaCuerda.net)


Otras partituras que podrían interesarte: