acordes.cc 
 letras y acordes > h > hombres g > nassau diccionario de acordes 
Nassau de Hombres G
AUTOR: David Summers
Hombres G Tabs
LaCuerda.net
imprimir Nassau de Hombres G 


     
E ----------------------------------------------------------------------
B ----------------------------------------------------------------------
G ----------------------------------------------------------------------
D ----------------------------------------------------------------------
A --5-5---5-5----0---5--7/9--7--5---------------------------------------
E -----------------------------------5---7-7--7-7---5--7--5-------------



Parto un coco y por dentro está...
G Em C A
  
E ---------------------------------------------------------------------
B ---------------------------------------------------------------------
G ---------------------------------------------------------------------
D ---------------------------------------------------------------------
A --------------------------------3-3-3-3-3-3-3-3--0-0-0-0-0-0-0-------
E ----3-3-3-3-3-3--0-0-0-0-0-0-0---------------------------------------

Tablatura de George Tobia
(geotobia@yahoo.com)


D                Bm
 Nassau, son las doce de la noche
 D                       Bm
 le quito la capota y enciendo el coche
 G                  Em
 hace a~os que no llueve en las Bahamas,
      G              A
 precisamente hoy le ha dado la gana.
 D              Bm
 Nassau, es la una menos diez
 D                     Bm
 le pongo la capota y deja de llover
 G                    Em
 parto un coco y por dentro esta podrido
        G           A                D
 que hare yo aqui, para que habre venido.
         F#   G        A
 Esta ma~ana, me ha dejado
              D                 F#
 mi novia hawaiana, y yo me pregunto
 G              A           D
 que co~o hare yo en las Bahamas.
                F#                G
 Se me jode el coche, me deja mi novia,
       A                    D
 me mareo cuando subo a la noria
             F#            G
 no estoy moreno estoy quemado
            A                 Bm          A    G    A
 y los mosquitos me han destrozado, uoh, uoh, oh.
 D                         Bm
 Tengo la espalda, como el culo de un mandril
 D                    Bm
 la chica del anuncio no esta por aqui
 G                      Em
 mucho rollo con los limones del Caribe
      G                 A
 y luego llegas y de milagro sobrevives.
 D                  Bm
 Con lo bien que estaba yo en Madrid
 D                      Bm
 con mi zumo de pi~a, y mi casita gris
 G             Em
 mi chalecito, en Navacerrada
 G                    A                     D
 todo el tiempo libre, nunca hay que hacer nada.
            F#
 Esta ma~ana...

 Para regresar al indice de Hombres G Pulsa Aqui

 Para regresar al Menu PrincipalPulsa Aqui

 ============================================================
 Copiado de la Pagina de Humberto Galindo
 (http://www.geocities.com/SunsetStrip/Palms/2634/index.html)
Este fichero es trabajo propio de su transcriptor y representa su interpretación personal de la canción. El material contenido en esta página es para exclusivo uso privado, por lo que se prohibe su reproducción o retransmisión, así como su uso para fines comerciales.

Fuente: Nassau: Letra y Acordes (LaCuerda.net)


Otras partituras que podrían interesarte: