acordes.cc 
 letras y acordes > j > joe cuba > mujer divina diccionario de acordes · afinador online · acordes guitarra
Mujer Divina de Joe Cuba
AUTOR: Joe Cuba
Joe Cuba Tabs
LaCuerda.net
imprimir Mujer Divina de Joe Cuba 
Intro:

(A#m - C)
e|----11-9--11-9--11-9--11-9--9-11-9----8-|
B|-8--11-11-11-11-11-11-11-11--------11---|
G|----------------------------------------|
D|----------------------------------------|
A|----------------------------------------|
E|----------------------------------------|

Fm - A# | Gm - C
Fm - A# | Gm - C
Fm - A# | Gm - C


e|---------------3-3-3--6-6-8--9-9-9-9-9-8--|
B|--------5-5-5--5-5-5--6-6-8--9-9-9-9-9-8--|
G|-5-5-5--5-5-5-----------------------------|
D|-5-5-5------------------------------------|
A|-3-3-3--3-3-3--3-3-3--6-6-8--9-9-9-9-9-8--|
E|------------------------------------------|


                   A#m
La primera noche que te vi
C                      Fm
   yo sabia que eras para mi
                   A#m
jam谩s otros besos prefer铆
C                          Fm
   porque siempre estas en mi.

 F7      A#m  D#           G#    Fm
Mujer divina     c贸mo fascinas
        G    C
y me dominas      el coraz贸n.

                     A#m
Y es por eso que yo soy feliz
C                      Fm
   porque ahora yo te tengo a ti
                      A#m
prieta linda t煤 eres para mi
C                        Fm    C
    y yo siempre soy de ti.

  Fm             A#m
Mulata, mi prieta,
                C                Fm
mi cielo, te quiero, te adoro divina mujer.

  Fm
Te voy a hacer una estatua, mami
       A#m
en el parque central
          C
para que pueda todita la gente
     Fm
pasar por all铆 e irte a mirar.

  Fm             A#m
Mulata, mi prieta,
                C                Fm
mi cielo, te quiero, te adoro divina mujer.

  Fm                                 A#m
Pero si t煤, conmigo, te llegas a portar mal
                  C
que yo voy a soltar un escuadr贸n de palomas
Fm
para que puedan volar.

  Fm             A#m
Mulata, mi prieta,
                C                Fm
mi cielo, te quiero, te adoro divina mujer.


e|--------3-3-3--8-8-8--|
B|--------5-5-5--8-8-8--|
G|-5-5-5----------------|
D|-5-5-5----------------|
A|-3-3-3--3-3-3--8-8-8--|
E|----------------------|


Jeh jeh jeh jeh...


Fm - A# | Gm - C (x8)


e|------------|
B|------------|
G|-5-8-7-6-5--|
D|-5-8-7-6-5--|
A|-3-6-5-4-3--|
E|------------|



  Fm             A#m
Mulata, mi prieta,
                C                Fm
mi cielo, te quiero, te adoro divina mujer.

  Fm                        A#m
Esa mulata sentada en la butaca
                       C
pero qu茅 piernas tiene mi mulata!
                     Fm
caridad, caridad, cariyuye, yemaya.

  Fm             A#m
Mulata, mi prieta,
                C                Fm
mi cielo, te quiero, te adoro divina mujer.

  Fm
Te voy a llevar a Puerto Rico
   A#m
y abajo de la palma voy a besarte
C
   pero no pidas que me case, mami
   Fm
papeles no voy a firmar.

  Fm             A#m
Mulata, mi prieta,
                C                Fm
mi cielo, te quiero, te adoro divina mujer.

e|------------|
B|------------|
G|-5-8-7-6-5--|
D|-5-8-7-6-5--|
A|-3-6-5-4-3--|
E|------------|



F7          A#m  D#           G#    Fm
     Mujer divina     c贸mo fascinas
        G    C
y me dominas      el coraz贸n.


(Fm - A# | Gm - C hasta el final)
Eh ah, mi mulata
el coraz贸n
cuando bailas el rico cha cha te arrebata
el coraz贸n
tiene mi mulata sandunga y sabrosura
el coraz贸n
que yo me voy para el congo
el coraz贸n
a comerme el sabroso mofongo
el coraz贸n
    C C C C C Fm
ay.






                   --------
                潞-| 陇    陇 |-潞
                潞-|  Lu茂S  |-潞
                潞-| 陇    陇 |-潞
                          /
                    |    |
        路===========================路
        | luis_6cuerdas@hotmail.com |
        路===========================路
Este fichero es trabajo propio de su transcriptor y representa su interpretaci髇 personal de la canci髇. El material contenido en esta p醙ina es para exclusivo uso privado, por lo que se prohibe su reproducci髇 o retransmisi髇, as como su uso para fines comerciales.

Fuente: Mujer Divina: Acordes de Guitarra (LaCuerda.net)


Otras partituras que podr韆n interesarte: