acordes.cc 
 letras y acordes > f > freddy rodriguez > mis fuentes diccionario de acordes 
Mis fuentes de Freddy Rodriguez
AUTOR: -?-
Freddy Rodriguez Tabs
LaCuerda.net
imprimir Mis fuentes de Freddy Rodriguez 
GUITARRA:intro   Dm C G F#m7

e----5-----5------------7-----7------------5-----5------------5-----5-----------
b----------------5--6------6-----6-----8------8-----8---5---7-----7-----5-------
G--7----7-----7---------------------5------------------------------------5-----
D-------------------------------------------------------------------------------
A-------------------------------------------------------------------------------
E-------------------------------------------------------------------------------


Dm            Am       G             F#m
EL FUNDAMENTO DE MI VIDA EN TU SANTO MONTE ESTA
Dm                       Am    G          F#m                  Dm   X2
EN LAS PUERTAS DE TU PRESENCIA DONDE AMAS Y DESEAS QUE ESTE

 1:15
e----------12--10------------I        MAS ARREGLOS DE LA GUITARRA ELECTRICA
b------10----------10--------I        Y EL KEYBOARD.
G----------------------------I
D--11------------------------I
A----------------------------I
E----------------------------I


A                       G            F#m
SOLO PUEDO DECIR LO GLORIOSA QUE ES TU PRESENCIA
G                  D       Am7                Dm
POR QUE EN ELLA NACI LO ESCRIBISTES EN EL CIELO


CORO
C         G                Dm7           Am7
TODAS MIS FUENTES ESTAN EN TI LA FUENTE DE MI AMOR
C         G                Dm7           Am7
TODAS MIS FUENTES ESTAN EN TI LA FUENTE DE MI VIDA
C         G                Dm7           Am7
TODAS MIS FUENTES ESTAN EN TI LA FUENTE DE MI UNCION
C         G                Dm7            Am7        (C final)
TODAS MIS FUENTES ESTAN EN TI EL SIMIENTO DE MI SER ESTA EN TI


Dm Am G F#m    X2 CON EL ARREGLO DE MIN. 1:15
                      EL SOLO DEL KEYBOARD Y
                      GUITARRA ELECTRICA

C G Dm7 Am7    X2 EL SOLO DE EL KEYBOARD SIGUE

CORO
el final es el arreglo con la nota Dm



OTRA DE MIS CANCIONES FAVORITAS, Y ESTA CANCION SE LA DEDICO
A MI PAPA ESPIRITUAL ANTHONY POR QUE SE QUE LE GUSTA MUCHO
SALUDOS A TODOS LA BANDA G11:12 Y LA BANDA DE ANNA,LOS QUIERO MUCHO
                          BDA!!!!!
Este fichero es trabajo propio de su transcriptor y representa su interpretación personal de la canción. El material contenido en esta página es para exclusivo uso privado, por lo que se prohibe su reproducción o retransmisión, así como su uso para fines comerciales.

Fuente: Mis fuentes: Letra y Acordes (LaCuerda.net)


Otras partituras que podrían interesarte: