acordes.cc 
 letras y acordes > a > ana y jaime > mi país diccionario de acordes 
Mi País de Ana y Jaime
AUTOR: -?-
Ana y Jaime Tabs
LaCuerda.net
imprimir Mi País de Ana y Jaime 
MI Pais
Ana y Jaime

Intro E
            B7            E
Con un poco de humor, vamos a reir
           B7                  E      
de la situacion, de nuestro pais
              A                   E
Con un poco de humor y un pañuelo en la mano
         B7                        E
vamos a reir de la situacion de mi Pais

            B7
Ni grande ni chico es mi pais
            E
se habla el español se come maíz


  A           E            B7            E
Asi adivina tu adivina tu cual es mi pais.

                       
e:------------------
B:-------3--4--5----
G:------------------
D:------------------
A:------------------
E:------------------

            B7                  E
Hay diez policias, por cada estudiante
            B7                  E
y hay un estudiante, por mil ignorantes


Asi adivina tu adivina tu cual es mi pais.

                       
e:------------------
B:-------3--4--5----
G:------------------
D:------------------
A:------------------
E:------------------




                       B7                      E
e:---2-----------2-----------0-----------0---------|
B:------0-----0-----0-----0-----0-----0-----0-----0|
G:---------2-----------2-----------1-----------0---|
D:-------------------------------------------------|
A:-------------------------------------------------|
E:-------------------------------------------------|

Con un poco de humor
sigue la pista dos
las señoras de aqui se dividen en dos
las señoras, "señoras"
y las que no lo son
las señoras señoras, van a mercar
y las que no lo son les venden su pan

Asi adivina tu adivina tu cual es mi pais.



                      B7                      E
e:---2-----------2-----------0-----------0---------|
B:------0-----0-----0-----0-----0-----0-----0-----0|
G:---------2-----------2-----------1-----------0---|
D:-------------------------------------------------|
A:-------------------------------------------------|
E:-------------------------------------------------|

Con un poco de humor sigue la pista tres
los señores de aqui se dividen en tres
los señores señores, los apenas señores y usted.
Los primeros "are living" en el barrio de moda
los segundos habitan, casas de clase dos
y los ultimos ultimos, los que nunca lo son
son los que hacen las casas, canciones y cosas
para los oros dos.

Asi adivina tu adivina tu cual es mi pais.


Y si no adivinas porque sos asi
de seguro somos del mismo pais.
Pues mi pais mi pais mi pais mi pais mi pais
mi pais mi pais; es tu es tu Pais.
                          E
e:--------------------------|
B:----0--3--5--0--3--4--5---|
G:--------------------------|
D:--------------------------|
A:--------------------------|
E:--------------------------|

--------------------------------------------------------------------------------
--------------------------------------------------------------------------------
Durante toda la cancion se tocan los acordes E B7 y A con algunas variaciones qu
aclaradas.  Esta lo mas aproximada posible.

Sugerencias o correcciones

Juan Pablo Ruiz
no.j@usa.net

REVOLUCION!!!!
Este fichero es trabajo propio de su transcriptor y representa su interpretación personal de la canción. El material contenido en esta página es para exclusivo uso privado, por lo que se prohibe su reproducción o retransmisión, así como su uso para fines comerciales.

Fuente: Mi País: Letra y Acordes (LaCuerda.net)


Otras partituras que podrían interesarte: