acordes.cc 
 letras y acordes > i > inti illimani > medianoche diccionario de acordes 
Medianoche de Inti Illimani
AUTOR: Patricio Manns, Horacio Salinas
Inti Illimani Tabs
LaCuerda.net
imprimir Medianoche de Inti Illimani 
TABLATURA INTRO:
...............


e |:-5--7--5--10--7-|---3-2-0h2p0----0-------|-----0---------3-|
B |:-5--5--5--10--5-|---0-0-0-----3----3-2-1-|---1-1-----2-4-4-|
G |:-5--------9---5-|-------------0----------|---0-------2-4---|
D |:----------10----|------------------------|-----------------|
A |:-0------------0-|------------------------|-1-----1-2-------|
E |:----------------|-0----------------------|-----------------|


  |-------------¬|---- ------¬
  |1.            |2.
e |--------5--4---:|-----------||
B |---3-2--3--3---:|---3--2----||
G |---0-0--5--4---:|---4--4----||
D |-----------2---:|---5--2----||
A |---------------:|-----------||
E |-0------0------:|-0---------||


  ] ÉSTOS SÍMBOLOS (|: :|) INDICAN QUE LOS COMPASES
    QUE SE ENCUENTREN ENTRE ELLOS SE DEBEN REPETIR.

  ] LOS NÚMEROS 1. Y 2. QUE APRECEN SOBRE LA TABLATURA;
    SON NÚMEROS DE CASILLAS, E INDICAN QUE SE DEBE REEMPLAZAR 2. EN 1.
    EN LA REPETICIÓN DEL MOTIVO.


TEMA:
....

           Am     E       E7/B Am/C  D7 D7/F#
A. Ven a beber conmigo en doce copas
           Gmaj7           C7/9
   Doce campanas ésta medianoche
          Am     Am/G        B7/9/F# B7*
   Escucharás el bronce congelado
     Em               B7         Em    E7
   Tañendo nuestro adiós en doce copas.


A. Ven a besar conmigo en doce copos
   la nieve amarga que fundió el invierno
   sobre la altura de mis sienes y este
   desamparado corazón que tengo.


            Dm     Dm/C         Dm/B E7
B. Ven a morder conmigo en doce gritos
       Am
   Los labios de un dolor ya redoblado
           Am     Am/G#       Am/G  Am/F#
   Será la última boca que tú beses
          Gmaj7             Bdim7 E7
   Cuando vayas camino del ocaso.


B. No bien bebas conmigo el sorbo amargo
   En la voz gris de los metales ciegos
   Vendrá esta medianoche repicando
            Gmaj7                   C7/9 Fmaj F#dim7
   La eternidad de nuestros dos destie___rros.


INTERLUDIO (SÓLO CLARINETE/FLAUTA TRAVERSA):
...........................

(MISMA SECUENCIA ARMÓNICA DE ACOMPAÑAMIENTO QUE LAS ESTROFAS)


e |:---------------------8---------|-----------------------------------|
B |:------8-12---10-9-10---12-9-10-|---------10---8----8-12-10---------|
G |:-9-11--------------------------|----9-11--------11---------11-12---|
D |:-------------------------------|-12--------------------------------|
A |:-------------------------------|-----------------------------------|
E |:-------------------------------|-----------------------------------|


e |---------------------------------------|-------------------------------:|
B |---------------------------10-9-8------|-------------------------------:|
G |---------------12-11-10-11--------11---|------8-11---9-8-9-12-11-8-9---:|
D |-10-12-10-9-10-------------------------|-9-11--------------------------:|
A |---------------------------------------|-------------------------------:|
E |---------------------------------------|-------------------------------:|


B. Ven a morder conmigo en doce gritos
   Los labios de un dolor ya redoblado
   Será la última boca que tú beses
   Cuando vayas camino del ocaso.


B. No bien bebas conmigo el sorbo amargo
   En la voz gris de los metales ciegos
   Vendrá esta medianoche repicando
   La eternidad de nuestros dos destierros.


A. Ven a besar conmigo en doce copos
   La nieve amarga que fundió el invierno
   Sobre la altura de mis sienes y este
                            Am /C /E   Em /G /B Em  B7/9*
   Desamparado corazón que te_______ ngo.


FIN.


LISTADO DE ACORDES:
..................

        e B G D A E
        | | | | | |
Am      0 1 2 2 0 0     ] LOS NÚMEROS INDICAN EL ESPACIO
Am/C    0 1 2 2 3 0       EN EL QUE SE DEBE PISAR LA CUERDA.
Am/G    0 1 2 2 0 3
Am/G#   0 1 2 2 0 4     ] LOS CEROS (0) INDICAN QUE LA CUERDA
Am/F#   0 1 2 2 0 2       SE PULSA AL AIRE.
        | | | | | |
E       0 0 1 2 2 0     ] LAS EQUIS (X) INDICAN QUE LA CUERDA
E7      0 3 1 0 2 0       NO SE DEBE PULSAR.
E7/B    0 3 1 0 2 0
Em      0 0 0 2 2 0
        | | | | | |
D7      2 1 2 0 0 x
D7/F#   2 1 2 0 0 2
Dm      1 3 2 0 0 x
Dm/C    1 2 3 0 3 x
Dm/B    1 2 3 0 2 x
        | | | | | |
Gmaj7   2 0 0 0 2 3
        | | | | | |
C7/9    0 3 3 2 3 0
        | | | | | |
B7*     2 4 2 4 2 2
B7      2 0 2 1 2 x
B7/9*   2 2 2 4 2 x
B7/9/F# x 2 2 1 x 2
Bdim7   1 3 2 3 2 x
        | | | | | |
Fmaj    0 1 2 2 0 1
F#dim7  x 1 2 1 0 2
        -----------
Este fichero es trabajo propio de su transcriptor y representa su interpretación personal de la canción. El material contenido en esta página es para exclusivo uso privado, por lo que se prohibe su reproducción o retransmisión, así como su uso para fines comerciales.

Fuente: Medianoche: Letra y Acordes (LaCuerda.net)


Otras partituras que podrían interesarte: