acordes.cc 
 letras y acordes > m > manu chao > me gustas tu diccionario de acordes 
Me gustas tu de Manu Chao
AUTOR: Manu Chao
Manu Chao Tabs
LaCuerda.net
imprimir Me gustas tu de Manu Chao 
bueno ps esta es mi versión de esta chida
canción ps pa los que les guste el regge

ps ahí va: se utilizan estos instrumentos

4 guitarras
bateria
bajo
pandero


1 GUITARRA: CON EL RITMO DEL REGGAE
          Bm            A
me gustan los aviones me gustas tu

           Em
ME GUSTA EL REGGAE ME GUSTAS TU
2ª GUITARRA: TODA LA CANCION VA ASÍ

e----------------12-------------------|
B-----11----9--9----9-----------------|
G---9-----7-----------9-12-11-9-------|
D-------------------------------------|
A-------------------------------------|
E-------------------------------------|


3ª GUITARRA: ASÍ VA IGUAL TODA LA CANCION

e--2----5----7---------------------|
B--3----5----8---------------------|
G--4----6----9---------------------|
D----------------------------------|
A----------------------------------|
E----------------------------------|

4ºª GUITARRA: TODA LA CANCION LLEVA ESTE PUNTEO I AL MISMO TIEMPO QUE LA 1ª

e-----------------------| Y EN EL PRINCIPIO Y AL FINALVA
B-12-12-12-12-12-12-12--|  ASÍ:   e----------14---------|
                                  B-12-12-12---12-12-12-|


cuando dice me gusta la canela me gustas tu va así
LA 2ª guitarra


e--7-7---------------|
B------5-0-3-2-------|
G--------------------|
D--------------------|
A--------------------|
B--------------------|


Y LA PARTE QUE HACE COMO AMBULANCIA AL FINAL SE TOCA AQUÍ:


e-12/10---12/10--12/10--12/10-----|
B---------------------------------|
G---------------------------------|
D---------------------------------|
A---------------------------------|
E---------------------------------|


LA BATERIA MARCA EL RITMO CON EL BOMOBO.
EL PANDERO GOLPEA EN LA MANO AL TIEMPO DE LA 1ª GUITARRA
Y ENTRE GOLPE Y GOLPE SE AGITA CON LA MANO.


ESCUCHENLA  Y SAQUENLA, ES FACIL

saludos al atom A. al mao y a hazzel

autor: juan nazaret

corregida por: marc buigues
Este fichero es trabajo propio de su transcriptor y representa su interpretación personal de la canción. El material contenido en esta página es para exclusivo uso privado, por lo que se prohibe su reproducción o retransmisión, así como su uso para fines comerciales.

Fuente: Me gustas tu: Letra y Acordes (LaCuerda.net)


Otras partituras que podrían interesarte: