acordes.cc 
 letras y acordes > c > charly garcía > maradona blues diccionario de acordes 
Maradona blues de Charly García
AUTOR: Charly García
Charly García Tabs
LaCuerda.net
imprimir Maradona blues de Charly García 
Diego, sos my life...

Intro: 

e------------------------|----------------------------------------------------
B------------------------|-----------------10------12s14--12-10---------------
G------------------------|------------9-11------11----------------9s11--9-----
D-----7--9>-9>--7-9>-----|-----7-9s11-----------------------------------------
A--7-9-------------------|-7-9------------------------------------------------
E------------------------|----------------------------------------------------

e---------12-11-10---------------------------------|----------------------------
B------10----------12s14>-10--12---10---9---9s7-7--|----------------------------
G--9s11-------------------------11-----------------|---9s11--9------------------
D--------------------------------------------------|-----------9-7--9-7------7--
A--------------------------------------------------|---------------------9-7----
E--------------------------------------------------|----------------------------



A        E              F#m   E
 Yo ya no existo sin pasado 
A            E            D
 entre la oscuridad y la luz. 
A            F#m            Bm
 Yo sé que existo en otro lado, 
A          E         D
 yo ya perdí el autobús 
A             E         A
 (como en el Maradona Blues). 

Un accidente no es pecado, 
y no es pecado estar así. 
Pero aquí estoy en este lado, 
por eso déjame salir. 
(Un poquito más de eso, nene) 
yo sólo quiero tu vivir. 

D             E                A
¿Qué es el pasado en nuestras vidas? 
D             E            F#m
¿Por qué ese peso sigue aquí? 
D             E
 Yo te he cuidado, 
       F#m    E        D
pero ahora es cara o cruz. 
Bm         E              A 
 Yo no te di mi fucking blues... 
D            E         A
 Es sólo el Maradona Blues. 

D          E                A
  Hey Maradona, hey some blues 

(Solo)

A             E
 Yo ya te entiendo. 
      G#m       B
Hice todo para ser... 
D        E                 A    F#m
 Yo no sé que hay con mi blues 
D            E         A
 y tengo el Maradona Blues. 


No sé qué droga te alegra más que yo, 
pero esta lluvia no pasó. 
Estoy llorando aquí por vos... 



Marina... estoy condenado a amarte, pase lo que pase.
Nos estamos viendo, gente.
Este fichero es trabajo propio de su transcriptor y representa su interpretación personal de la canción. El material contenido en esta página es para exclusivo uso privado, por lo que se prohibe su reproducción o retransmisión, así como su uso para fines comerciales.

Fuente: Maradona blues: Letra y Acordes (LaCuerda.net)


Otras partituras que podrían interesarte: