acordes.cc 
 letras y acordes > h > héroes del silencio > mar adentro diccionario de acordes 
Mar Adentro de Héroes del Silencio
AUTOR: Pedro Andreu, Joaquin Cardiel, E. De Landazuri Ortiz, Janet Valdivia
Héroes del Silencio Tabs
LaCuerda.net
imprimir Mar Adentro de Héroes del Silencio 
INTRO [Dm F A#sus Am

       Dm                     F
Y por fin he encontrado el camino    
     A#sus           Am
que ha de guiar mis pasos,   
        Dm                  F
y esta noche me espera el amor
            A#sus  Am
en tus labios.    
    Dm             F
De cada mirada, por dios,
       A#sus              Am
ardia el recuerdo en mi interior,
          Dm
pero ya he desechado     
      F                  A#sus Am [Dm Am] x 2
por siempre la fruta podrida.

e-------------|--------------------------- 
B-------------|----6-5--------------------
G-5/7---5-----|-5/7----5------------------
D-----7---5-3-|---------------------------
A-------------|---------------------------
E-------------|--------------------------- 

    C          Em          G
En la prision del deseo estoy.   
          Dm               F
y aunque deba cavar en la tierra    
    A#sus                 Am
la tumba que se que me espera   
   Dm           F           A#sus Am
jamas me vio nadie llorar asi.   
        Dm                 F
que termine un momento precioso    
   A#sus        Am
y le suceda la vulgaridad,
         Dm           F
y nadar mar adentro
       A#sus      Am   [Dm Am] x 2
y no poder salir.

e-------------|--------------------------- 
B-------------|----6-5--------------------
G-5/7---5-----|-5/7----5------------------
D-----7---5-3-|---------------------------
A-------------|---------------------------
E-------------|--------------------------- 

    C          Em          G
En la prision del deseo estoy.   
           [Dm F A#sus Am] x 2  [Dm Am] x 2  C Em G
junto a ti.

Solo 1  
e----------------------------5---------------------- 
B--------------6---6-----5----5---------------------
G-5/7-5h6-5-----7---7----5--5--5--------------------
D----7------5-----7---7--7--------------------------
A---------------------------------------------------
E---------------------------------------------------

e----------------------------5---------------------- 
B--------------6---6-----5----5---------------------
G-5/7-5h6-5-----7---7----5--5--5--------------------
D----7------5-----7---7--7--------------------------
A---------------------------------------------------
E---------------------------------------------------

e---------------------------------------------------
B---6-8-8-8---6-6-6-6------8-8-8-8/10-8--5-55-5-6---
G--7----7-7-7-7------7-7--7-7-7--------7-5-55-5-7---
D-7---------7---------7-7----------------7-77-7-7---
A---------------------------------------------------
E---------------------------------------------------
e-------------|
B-5-55-5-6----|
G-5-55-5-7----|
D-7-77-7-7----|
A-------------|
E-------------| 

REPETIR INTRO
       Dm                     F
Y por fin he encontrado el camino
         A#sus           Am
que ha de guiar mis pasos,
           Dm                  F
y esta noche me espera el amor
            A#sus  Am
en tus labios.    
    Dm             F
De cada mirada, por dios,
       A#sus              Am
ardia el recuerdo en mi interior,
         Dm           Fy nadar mar adentro    
   A#sus       Am   [Dm Am] x 2
y no querer salir.     
     C          Em          G
En la prision del deseo estoy.   
    C          Em          G
En la prision del deseo estoy.   
           [Dm F A#sus Am] x 2  [Dm Am] x 2
 junto a ti.

Solo 2
e----------------------------5--------------------- 
B--------------6---6-----5----5--------------------
G-5/7-5h6-5-----7---7----5--5--5-------------------
D----7------5-----7---7--7-------------------------
A--------------------------------------------------
E--------------------------------------------------

e----------------------------5---------------------- 
B--------------6---6-----5----5---------------------
G-5/7-5h6-5-----7---7----5--5--5--------------------
D----7------5-----7---7--7--------------------------
A---------------------------------------------------
E---------------------------------------------------

e-----------------------------------------------5---
B---6-8-8-8---6-6-6-6------8-8-8-8/10-8--5-55-5-6---
G--7----7-7-7-7------7-7--7-7-7--------7-5-55-5-7---
D-7---------7---------7-7----------------7-77-7-7---
A---------------------------------------------------
E---------------------------------------------------

e--------5---8----8----8----8----8----8----8-10/12-12-12-
B-5-55-5-6--6-6--6-6--6-6--6-6--6-6--6-6--6-6------------
G-5-55-5-7-7----7----7----7----7----7----7---------------
D-7-77-7-7-----------------------------------------------
A--------------------------------------------------------
E--------------------------------------------------------

e--5-5-7p5-5-8-5-7p5-----5-5-7p5-5-8-5-7p5-----
B-7-------7-----7---7-5-7-------7-----7---7-5--
G----------------------------------------------
D----------------------------------------------
A----------------------------------------------
E----------------------------------------------

e-5--5---5--5---5-5-x-5-5-5-x-5-5------|
B-6---6--5---5--6-6-x-5-5-5-x-5-5------|
G-7-7--7-5-5--5-7-7-x-5-5-5-x-5-5------|
D-7------7------7---x-7-----x----------|
A--------------------------------------|
E--------------------------------------|
      C          Em          G
En la prision del deseo estoy.
            Dm 
junto a ti.
Este fichero es trabajo propio de su transcriptor y representa su interpretación personal de la canción. El material contenido en esta página es para exclusivo uso privado, por lo que se prohibe su reproducción o retransmisión, así como su uso para fines comerciales.

Fuente: Mar Adentro: Letra y Acordes (LaCuerda.net)


Otras partituras que podrían interesarte: