acordes.cc 
 letras y acordes > p > pedro fernandez > lluvia de plata diccionario de acordes 
Lluvia de plata de Pedro Fernandez
AUTOR: Bastos, Wilson
Pedro Fernandez Tabs
LaCuerda.net
imprimir Lluvia de plata de Pedro Fernandez 
A
Ya empieza anochecer
G#m7        C#m    
se que muy pronto
         G
va a llover
B7              E  B7
sobre nuestro amor

E                    G#m
Lluvia de plata que cae sin parar 
Bm7             C#7
casi me mata de tanto esperar
   F#m             C
un beso mojado de luz
B7              E   B7
sella nuestro amor

E                  G#m
Basta un momento bañado de ti
Bm7              C#7
un pensamiento para conseguir
   F#m             C
un rayo de luna nacer
B7         E   B7
en mi corazon

E         B              C#m     C#m7
Cada noche yo sueño contigo
     A     F#7                 B7
suspirando     por verte otra vez
E             B               C#m      C#m7
en mis sueños siempre te lo digo
          A    Am                 E
que te extraño    y siempre te amare

REQUINTO
E------------------------------------------------------
B---------3-5-----------------------3-4-3--3-4-2-3-----
G-5-5-5-5-----5-5-5-5-7-5-----5-5-5-5------------------
D------------------------------------------------------
A------------------------------------------------------
E------------------------------------------------------


E-------------------3-4-3-1-0-3-1-----------3-0--------
B-------------3-5-6-------------------1---------1------
G-3-2-0-2-3-5---------------------------3-2------------
D------------------------------------------------------
A------------------------------------------------------
E------------------------------------------------------


E                 G#m
Cierra los ojos y dejame a mi
Bm7                   C#7
con las estrellas te voy a vestir
F#m                      C
la noche nos quiere envolver
B7            E      B7
con esta cancion

E           B                 C#m     C#m7
Cada tarde cuando estoy contigo
     A    F#7                B7 
a tu lado,    no se lo que hacer
E          B               C#m     C#m 
tu sonrisa es lo que te pido
      A    Am              E B7
de tu mano     no me alejare

E                   G#m
Lluvia de plata que cae sin parar
Bm7               C#7
casi me mata de tanto esperar
   F#m             C
un beso bañado de luz
B7              E    C#m
sella nuestro amor

    F#m                  C
La noche nos quiere envolver
B7            E
con esta cancion
   F#m               C
un rayo de luna al caer
B7             E
moja nuestro amor


GooD LucK!
Este fichero es trabajo propio de su transcriptor y representa su interpretación personal de la canción. El material contenido en esta página es para exclusivo uso privado, por lo que se prohibe su reproducción o retransmisión, así como su uso para fines comerciales.

Fuente: Lluvia de plata: Letra y Acordes (LaCuerda.net)


Otras partituras que podrían interesarte: