acordes.cc 
 letras y acordes > a > los auténticos decadentes > la prima lejana diccionario de acordes 
La prima lejana de los Auténticos Decadentes
AUTOR: -?-
los Auténticos Decadentes Tabs
LaCuerda.net
imprimir La prima lejana de los Auténticos Decadentes 
Intro:(entra con la bateria)
Mi-Re (A|5-7)

Versos:
G|------------------
D|------------------
A|0-00-0-00------5-7
E|----------2-22---- (x2)

Despues de los versos:
G|---------------------------------------------
D|---------------------------------------------
A|5-55--77-00-------------5-55-5-55-7-77-------
E|------------4-44-44-422---------------0-0-0-0

Esto lo hace 2 veses, despues viene el escribillo.

Escribillo:
G|-----------------------
D|-----------------------
A|0(x16)------5(x8)-7(x10)
E|------2(x16)-----------   (X2)

Despues viene el Verso de nuevo y la parte q viene Despues de lo versos
y de nuevo el Escribillo.

Solo de guitarra:
G|--------------------
D|--------------------
A|0-00-0-00------55-77
E|----------2-22------ (x2)

Con la piernas abiertas hasta el sol...:
G|--------
D|--------
A|5-55-050 (x13)
E|--------

Final: Hace lo mismo que el verso muchas veses hasta que termina.
Este fichero es trabajo propio de su transcriptor y representa su interpretación personal de la canción. El material contenido en esta página es para exclusivo uso privado, por lo que se prohibe su reproducción o retransmisión, así como su uso para fines comerciales.

Fuente: La prima lejana: Letra y Acordes (LaCuerda.net)


Otras partituras que podrían interesarte: