acordes.cc 
 letras y acordes > i > los iracundos > la pagina 10 diccionario de acordes 
La Pagina 10 de los Iracundos
AUTOR: Becerra, José Finkel
los Iracundos Tabs
LaCuerda.net
imprimir La Pagina 10 de los Iracundos 
LAS NOTAS DE ESTA CANCION SE EJECUTARAN EN UNA ESCALA SIMPLE DIATONICA
(INTERMEDIAS Y AGUDAS) MAS NO EN TONICAS GRAVES.


soy uno de los tontos que fueron en tu vida 
                 SI                    SI7
momentos pasajeros
           MI
no se si me recuerdas yo soy en tu diario 
                FA#             
el de la pagina diez        
               SI FA#
soy uno de tus besos los besos que olvidaste
                 SI                     SI7
de apuro en el camino
                  MI
y aunque tu no lo recuerdes yo quiero llenar
                      SI                SOL
otra pagina de amor
       FA#      SI
no pretendo toda tu alma me contenta tu presencia
                 LA                      RE
me presento amigo nuevo otro mas para olvidar
             DO#             SOL         FA#
fue solo un episodio de sabado en la noche
                SI                      SI7
romance de bolsillo
                MI
para ti fue una aventura, para mi fue la locura
                   SI                      SOL
que jamas olvidare... rep (todo)
     FA#       SI

----8-7-8-7-7-5|---8-7-8-7-7-5-5-5-||---------------|
--5------------|-5-----------------||-8-6-5-6-------|
---------------|-------------------||---------------|
---------------|-------------------||---------------|
---------------|-------------------||---------------|
---------------|-------------------||---------------|


----7-5-7-5-5-4|----7-5-7-5-5-4|-------4^5---------|
--5------------|--5------------|-6-5-6-----6-5-----|
---------------|---------------|-------------------|
---------------|---------------|-------------------|
---------------|---------------|-------------------|
---------------|---------------|-------------------|


cualquier comentario javirojas34@yahoo.com
Este fichero es trabajo propio de su transcriptor y representa su interpretación personal de la canción. El material contenido en esta página es para exclusivo uso privado, por lo que se prohibe su reproducción o retransmisión, así como su uso para fines comerciales.

Fuente: La Pagina 10: Letra y Acordes (LaCuerda.net)


Otras partituras que podrían interesarte: