acordes.cc 
 letras y acordes > c > caifanes > la llorona diccionario de acordes 
la Llorona de Caifanes
AUTOR: Saul Hernández
Caifanes Tabs
LaCuerda.net
imprimir la Llorona de Caifanes 
Intro:
1|---------------------------------|----------------------------------|
2|---------------------------------|-3-6-3-0----------6-3-0-----------|
3|2-5--4-2--5--2---2-5--4-2--5-2---|---------2-0-4-4--------2-0-4-4---|
4|---------------------------------|----------------------------------|
5|---------------------------------|----------------------------------|
6|---------------------------------|----------------------------------|

1|---------------------------------|
2|---------------------------------|
3|2-2-2-5--4-2-2---2-2-2-5--0-0-0--|
4|---------------------------------|
5|---------------------------------|
6|---------------------------------|

Am            
Desde el fondo de la tierra,

Fantasmas humanos se buscan.
Dm
Algunos olvidan frio,
E
Otros nunca se encuentra.
G              
Hacen temblar la vida;
Am
Tiemblan sueños,
E            Am
Tiembla amor.

Dm                     Am
-Ay!, no quiero amarte, Llorona.
Dm                  Am
-Ay!, no quiero llorar contigo.
G                   Am
-Ay!, dejame ver tu piel.
G                   Am
-Ay!, dejame ser tu piel.
G
Dejame ayudarte,
Am
Na'mas dime como,
Am              E
Y asi sera...

Am 
Desde el fondo de la tierra...

Más allá de la existencia

Dm
Flotan almas solas

Todas crucificadas
G
Hombres y mujeres lloran
Am               E            Am
Por un amor que nunca tuvieron.

Dm
-Ay!, no quiero amarte, Llorona...

   Am  Dm  G   E
|--0---1---3---0--|
|--1---3---0---0--|
|--2---2---0---1--|
|--2---0---0---2--|
|--0---0---2---2--|
|--0---0---3---0--|

Transcrito por Romeo Márquez
Corecciones por Sergio Alejandro y el intro por Raúl Erazo (raulerazo@usa.net)
Este fichero es trabajo propio de su transcriptor y representa su interpretación personal de la canción. El material contenido en esta página es para exclusivo uso privado, por lo que se prohibe su reproducción o retransmisión, así como su uso para fines comerciales.

Fuente: la Llorona: Letra y Acordes (LaCuerda.net)


Otras partituras que podrían interesarte: