acordes.cc 
 letras y acordes > c > cielo razzo > la gran ola diccionario de acordes 
La Gran Ola de Cielo Razzo
AUTOR: -?-
Cielo Razzo Tabs
LaCuerda.net
imprimir La Gran Ola de Cielo Razzo 
bueno aca envío una corrección
le agregue el solo unos pequeños riff
yo creo que el tema ya esta completo cualquier
opinion un mensaje a elpajaro33@hotmail.com

Riff1                  Riff2
E--5-3-2 2/3--2------   E-----------------
B--------------------   B-----------------
G--------------------   G-----------------
D--------------------   D--7-5-4-4/5--4---
A--------------------   A-----------------
E--------------------   E-----------------

Intro: A#-D-G-D-G


A#                            D
Estoy tan cansado de ser maltratado
           G            D         G
por eso me voy por eso me marcho..
         D
por eso me marcho..
A#                                  D
Lejos de estas tierras me quiero componer
            G              D      G
de tu ingratitud a mi pobre ser..
          D
a mi pobre ser..

Em
Y voy buscando un cielo con mar y arenas
                             D    Riff1
una ola inmensa para poder nadar..
Em
Y voy buscando un cielo con mar y arenas
                             D
una ola inmensa para poder nadar..
G           D
para poder nadar...



A#                                    D
Todos caminando en un laberinto gris y seco
             G                D       G
hortigas de alambre flores de metal..
          D
flores de metal..
A#                                     D
Es un juego diabolico y tambien es muy triste
               G                   D       G
cuando toca la prenda alguien debe pagar..
            D       Riff2
alguien debe pagar..

Em
Y voy buscando un cielo con mar y arenas
                           D    Riff1
una ola inmensa para poder nadar..
Em                                      G
Y voy buscando un cielo con mar y arenas
                           D       G
una ola inmensa para poder nadar..
          D
para poder nadar...

Solo:

E----------------------------------------------------------
B----------------------------------------------------------
G------------------------------------7-7/9--7-9-7----------
D--9-9-9-9--7--7------9--7-----7--9------------------------
A-----------------10--------10-----------------------------
E----------------------------------------------------------

E----------------------------------------------------------
B----------------------------------------------------------
G------------------------------------7--9/11--14--11--14---
D--9-9-9-9--7--7------9--7-----7--9------------------------
A-----------------10--------10-----------------------------
E----------------------------------------------------------

E----------------------------------------------------------
B----------------------------------------------------------
G------------------------------------7--9/11--14--11--14---
D--9-9-9-9--7--7------9--7-----7--9------------------------
A-----------------10--------10-----------------------------
E----------------------------------------------------------

Em - Bm


Em      Bm                   Em
Nena nadar nena nadar nena nadar..
Este fichero es trabajo propio de su transcriptor y representa su interpretación personal de la canción. El material contenido en esta página es para exclusivo uso privado, por lo que se prohibe su reproducción o retransmisión, así como su uso para fines comerciales.

Fuente: La Gran Ola: Letra y Acordes (LaCuerda.net)


Otras partituras que podrían interesarte: