acordes.cc 
 letras y acordes > h > héroes del silencio > la carta diccionario de acordes 
la Carta de Héroes del Silencio
AUTOR: Pedro Andreu, Enrique Bunbury, Joaquin Cardiel, Janet Valdivia
Héroes del Silencio Tabs
LaCuerda.net
imprimir la Carta de Héroes del Silencio 
e -----------------------12--------12----------13--12---
B --------------------------10--------10----------------
G ------------------------------9----------9------------
D ------------------------------------------------------
A --0--0--0--0----0--0----------------------------------
E ------------------------------------------------------

e ----------------------------------------------7-------
B -------5----5------6----5------5----------------8-----
G ----5----5-------5----5------5---5---------9----------
D --7------------3-------------------7-----9------------
A --------------------------3------------7--------------
E ------------------------------------------------------

e ------------------------------------------------------
B -------5----5------6----5------5-------------8--7-----
G ----5----5-------5----5------5---5---------9------9/--
D --7------------3-------------------7-----9------------
A --------------------------3------------7--------------
E ------------------------------------------------------

 A              F          C    E
      No hace mucho que lei tu carta,
         A     F              C
y sin fuerzas... para contestar,
       E                     A
mil pedazos al viento nos separan
       F          C      E
pondre casa en un pais lejano
     A       F
para olvidar
            C      E
este miedo hacia ti

e ----------------------------------------------7-------
B -------5----5------6----5------5----------------8-----
G ----5----5-------5----5------5---5---------9----------
D --7------------3-------------------7-----9------------
A --------------------------3------------7--------------
E ------------------------------------------------------

e ------------------------------------------------------
B -------5----5------6----5------5-------------8--7-----
G ----5----5-------5----5------5---5---------9------9/--
D --7------------3-------------------7-----9------------
A --------------------------3------------7--------------
E ------------------------------------------------------

 A               F         C
     y no hace mucho que rompi
       E        A     F
tu recuerdo pensando
   C              E-A
acabar de una vez
         F              C
pero el tiempo y la distancia
        E          A
no son todo para mi
        F          C   E         F
siempre hay algo que me hace volver


          E                  A
siempre he escuchado, y ya no te creo
            F            G
¿porque no te entiendo?
                E                F
¿por qué estas tan lejos?Uh uh uh;


           E                A
siempre he escuchado, y ya no te creo
              F         G
¿porque no te entiendo?
                E
¿por qué estas tan lejos?

  Uh uh uh uh
e ----------------------------------------------7-------
B -------5----5------6----5------5----------------8-----
G ----5----5-------5----5------5---5---------9----------
D --7------------3-------------------7-----9------------
A --------------------------3------------7--------------
E ------------------------------------------------------

e ------------------------------------------------------
B -------5----5------6----5------5-------------8--7-----
G ----5----5-------5----5------5---5---------9------9/--
D --7------------3-------------------7-----9------------
A --------------------------3------------7--------------
E ------------------------------------------------------

 A             F               C
      se que siempre he sido asi
        E         A     F
y que no tengo remedio,
        C           E-A
ni lo quiero tener
            F           C
pero ni el miedo ni tu cartas
        E        A
lo son todo para mi
       F    C          E              F
quizas otra vez te echare la culpa a ti

             E              A
siempre he escuchado, y ya no te creo
           F            G
¿porque no te entiendo?
               E                 F
¿por qué estas tan lejos? Uh uh uh;

          E                 A
siempre he escuchado, y ya no te creo
           F            G
¿porque no te entiendo?
               E
¿por qué estas tan lejos? Uh uh uh uh;

e ----------------------------------------------7------
B -------5----5------6----5------5----------------8----
G ----5----5-------5----5------5---5---------9---------
D --7------------3-------------------7-----9-----------
A --------------------------3------------7-------------
E -----------------------------------------------------

e --------------------------------------------------7--
B ------5---5------------------------10-----------8----
G ----5---5------5--7--5----------10----10------9------
D --7----------3----------------10------------9--------
A ------------------------------------------7----------
E --------------------------8--------------------------

e ------------------------------------8---------7-----
B ------5---5----------5-----------10---------8-------
G ----5---5------5-7-5----------10----------9---------
D --7----------3-------------10-----------9-----------
A --------------------------------------7-------------
E ------------------------8---------------------------

e --------------------------------------------------5-
B ------5-----------5----------5----------5/6-5-----5-
G ----5---5-------5---5------5---5------5-------5---5-
D --7-------7---5-------5--4-------4--3-------------7-
A --------------------------------------------------7-
E --------------------------------------------------5-

Ritmo: ROCK

---|---|---A---A---|----A---|---
---|---|---|---|---|----|---|---
---|---|---|---|---|----|---|---
---|---|---|---|---|----|---|---
---|---|---|---|---|----|---|---
---V---V---|---|---V----|---V---

Esa es toda la canción y su ritmo
dos acordes no aparecen en la barra de opciones
pero son Mi menor (e) y La menor (a).

     E           A
e ---0-----------0--------
B ---0-----------1--------
G ---0-----------2--------
D ---2-----------2--------
A ---2-----------0--------
E ---0-----------0--------
Este fichero es trabajo propio de su transcriptor y representa su interpretación personal de la canción. El material contenido en esta página es para exclusivo uso privado, por lo que se prohibe su reproducción o retransmisión, así como su uso para fines comerciales.

Fuente: la Carta: Letra y Acordes (LaCuerda.net)


Otras partituras que podrían interesarte: