acordes.cc 
 letras y acordes > e > enanitos verdes > la banda de la esquina diccionario de acordes 
La banda de la esquina de Enanitos Verdes
AUTOR: Marciano Cantero
Enanitos Verdes Tabs
LaCuerda.net
imprimir La banda de la esquina de Enanitos Verdes 
Esta canción comienza así:
 
INTRO:  X2
    G     F7    C
e|--3--3--1--1--0-----0--1-1-0--|--3--3--1--1--0---------------|
B|--3-----1-----1--3------------|--3-----3-----1---------------|
G|--4-----2-----0---------------|--4-----3-----0---------------|
D|--5-----1-----2---------------|--5-----3-----2---------------|
A|--5-----3-----3---------------|--5-----1-----3--3-3--2--0----|
E|--3-----1-----0---------------|--3-----1-----0------------3--|

Rifff 1      
e|---------------------|
B|---------------------|
G|---------------------|
D|--------------1-1----|
A|--3--3-1-3--1-----3--|
E|---------------------|



Riff 1       C             Riff 1 x2
Hipnotizándome en silensio
Riff 1       C        Riff 1 x2  
vi flores de plástico
Riff 1       C     Riff 1 x2
a su paso callendo
Riff 1           C                     Riff 1 x2
y toda la banda que está en la esquina
Riff 1       C   Riff 1 x2                 
la sigue mirando
Riff 1     C           G
tan duros de tiempo y ella no sabe nada
                 F7
ella no quiere saber
C Riff 1                          Riff 1 x2
Pornografía y trajedia en un beso
Riff 1        C          Riff 1 x2
nesesitabas ese consuelo
Riff 1         C    Riff 1 x2
por que nadie puede
Riff 1         C
vivir de recuerdos
Riff 1         C              Riff 1 x 2 y riff 2
o es la ilución de vivirlo de nuevo

Riff 2
e|-------------------------------|
B|--5/8^--6-4-6-4----------------|
G|----------------6--6-4-6-4-----|
D|----------------------------4--|
A|-------------------------------|
E|-------------------------------|
G          
ella no sabe nada
G                  F7
ella no quiere saber
F7              
que me sigua su sombra
           G
que ya no hay lugar 
G
que me esconda
                   C 
su luz me va a encontrar
   G       
y ella no sabe nada
   G
y ella no sabe nada
                 
ella no quiere saber

que me sigue su sombra
                 Riff 3       
su luz me va a encontrar

Riff 3
e|--------------|
B|--------------|
G|--------------|
D|--------------|
A|--3-3--3-1----|
E|-----------1--|
                               Riff 1 x2
ella es tan clara, tan oportuna
Riff 1               C      Riff 1 x2
camina tan bello a la luz de la luna 
C          G
y nunca supo nada
F7        G       F7
ella no quiere saber
         G         F7
que me sigue su sombra
     G          F7
que ya no hay lugar que me esconda
                 G 
no, no quiero saber
         F7
que me sigue su sombgra
    G                        F7
que ya no hay lugar que me esconda
    G        F7       C Riff 3         
su luz me va a encontrar

Se repite ´la introducción 2 veces                   
F7       G       F7
Ella no quiere saber...
Este fichero es trabajo propio de su transcriptor y representa su interpretación personal de la canción. El material contenido en esta página es para exclusivo uso privado, por lo que se prohibe su reproducción o retransmisión, así como su uso para fines comerciales.

Fuente: La banda de la esquina: Letra y Acordes (LaCuerda.net)


Otras partituras que podrían interesarte: