acordes.cc 
 letras y acordes > e > enanitos verdes > igual que ayer diccionario de acordes 
Igual que Ayer de Enanitos Verdes
AUTOR: Marciano Cantero
Vota por Enanitos Verdes
100votos.com


Enanitos Verdes Tabs
LaCuerda.net
imprimir Igual que Ayer de Enanitos Verdes 

Bueno estaba buscando urgente la primera de esta cancion y no la encontre..
asi que me tome el tiempo de sacarla. bueno ahi les va... !!!
Se la dedico a una chica muy especial.. HelcY ! eres Lo maximo...te adoro

ENANITOS VERDES - IGUAL QUE AYER

INTRO:

1------------------------------------------------------
2-12-13-15-15-13-13-12-13----12-13-13-12-12----15v(17)-
3-------------------------14----------------14---------
4------------------------------------------------------
5------------------------------------------------------
6------------------------------------------------------

1----------------------------------------------------15---
2-12-13-15-15-13-13-12-12--------------13/15--13----------
3-------------------------14-14-12-12--------------15^----
4---------------------------------------------------------
5---------------------------------------------------------
6---------------------------------------------------------

         Am          D
Nos conocimos sin saber
             G  G/F#      E
que un cigarrillo y un café
          Am            D             G - D - G
serían excusas para el tiempo de los dos.

-----------------------------------
---10------------------------------
--------12^------------------------

       Am         D
Voy a salir a caminar
                  G    G/F#   E
y aunque es muy grande la ciudad
       Am             D             G - D - G
yo presiento que nos vamos a encontrar.

e----------------------------------
b--------12---10---8---------------
g---14/12----9----7----------------

     F                  E
Porqué mantuviste encendida
               Am
la chispa de nuestro amor

e-----------------------------------
b---10------------------------------
g--------12^------------------------

     Eb       D       Cm    Bb      Am      D
yo ahora te llevo en cada latido de mi corazón.

e--------------------------------
b---15^--------------------------
       Am        D            G    Bm  Bbm
Yo necesito tu amor dame tu amor oh oh oh
       Am        Cm    Am       D
yo necesito tu amor igual que ayer.

e-----------------------------------
b---------15^-15^-------------------
g---12-----------------------------

          Am            D
Cómo explicarte la emoción
             G    G/F#     E
cuando escuché por fin tu voz
         Am           D          G    -    D - G
quedo desierta la ciudad solo para los dos.

e--------------------------------------------------------
b-----15^-[17h15]-[17h15]-[17h15]-[17h15]-[17h15]-15^----

         Am           D
otra vez en el mismo bar
         G    G/F#    E
un cigarrillo y un café
          Am             D            G
viejas excusas de un encuentro sin final

e-----15-17^--17-15-17^---15-14-----
b---15-------------------------15---

     F                  E
Porqué mantuviste encendida
              Am
la chispa de nuestro amor
     Eb       D      Cm     Bb      Am      D
yo ahora te llevo en cada latido de mi corazón.

e-----------------------------------
b--15^------------------------------

       Am        D            G    Bm  Bbm
Yo necesito tu amor dame tu amor oh oh oh
       Am        Cm   Am        D
yo necesito tu amor igual que ayer.

SOLO:

1----------------------------------------------------------14p15p17-
2-------------15v-15-15v-15------------------------14p15p17---------
3-------12-14---------------14v(16)-14h1214--14p16------------------
4-12-14-------------------------------------------------------------

1-15-14-15-17-------------------------------------------------------
2-------------15-15V-15V--------------------------------------------
3--------------------------14V(16)-14h12p14--------12-14--12--------
4--------------------------------------------12-12-----------14^-12-
5-------------------------------------------------------------------
6-------------------------------------------------------------------

1-------------------------------------------------12----------------
2------------------15-15v-15-15v-15-15v--------12----15-12----------
3---------------------------------------14v-12-------------12s14----
4-------------------------------------------------------------------
5-12^-10-12-----10--------------------------------------------------
6------------12-----------------------------------------------------

1---------------------------12---------------------------------------
2-------------------------12--12-15v-15p17h15--12p15h12--------------
3-14vh12p14-14vh12p14-14v------------------------------14-12p14h12---


4-14-12p14h12-----------------
5------------14-12p14h12------
6-----------------------15h12-

   B                     Dm  C
parece que al final los dos

e-----------------------------
b--12-------------------------
g---------------14^--------12-


  Am                    D
pudimos reaccionar,  supimos reaccionar.

e-----------------------------------------
b--------------------------------12--15^--
g-----------12^---------------------------

    Am         D
Recuperemos el lugar,
           G    G/F#    E
lugar que nadie mas llenó
           Am            D          G
y con las flores del jardín florecerá el amor

e----------------------------------------
b-----------12-15^----12^----12----------
g--------------------------14--12--------

     F                  E
Porqué mantuviste encendida
              Am
la chispa de nuestro amor
     Eb       D      Cm     Bb      Am      D
yo ahora te llevo en cada latido de mi corazón.

--------------------------------------------------------
-----15^-[17h15]-[17h15]-[17h15]-[17h15]-[17h15]-15^----
--------------------------------------------------------
--------------------------------------------------------
--------------------------------------------------------
--------------------------------------------------------


       Am        D            G   Bm  Bbm
Yo necesito tu amor dame tu amor oh oh oh
       Am        Cm   Am         D
yo necesito tu amor igual que ayer. (Bis)


       Am           D        G           Bm Bbm
Yo necesito tu amor, yo necesito tu amor
       Am          Cm  Am        D
Yo necesito tu amor, igual que ayer. (Bis)
e-----------------------------------------
g--------12---15^---------------------------


Final : Am - D - G - G/F# - E - Am - D - G

1------------------------------------------------------
2-12-13-15-15-13-13-12-13----12-13-13-12-12----15v(17)-
3-------------------------14----------------14---------

1-----------------------------------------------------------
2-12-13-15-15-13-13-12-12-14-14------12-13-15-15-13-13-12-13
3-------------------------------12-12------------------------

1------------19-19---------------------------------------------------
2------17-20------20-17-20-17p20-15-----------------------------12-12
3-18p19-----------------------------14v(16)-14v(16)-14-12----12-12-12



Bueno eso es todo si hay un problema.. ! avisen nomas. solo es cosa de
guiar los punteos con la cancion.. xq no todos encuadran al final.varios se
ejecutan junto con el vocal

Te AmoOoOoO HelcY !!!... Fawkes.. ! =P
Este fichero es trabajo propio de su transcriptor y representa su interpretación personal de la canción. El material contenido en esta página es para exclusivo uso privado, por lo que se prohibe su reproducción o retransmisión, así como su uso para fines comerciales.

Origen: Igual que Ayer: Letra y Acordes (LaCuerda.net)


Otras partituras que podrían interesarte: