acordes.cc 
 letras y acordes > p > polo montañez > guitarra mía diccionario de acordes 
Guitarra mía de Polo Montañez
AUTOR: -?-
Vota por Polo Montañez
100votos.com


Polo Montañez Tabs
LaCuerda.net
imprimir Guitarra mía de Polo Montañez 

Saludos a todos desde Colombia
Aqui les va  una de las mas bellas canciones de Polo aqui se las entrego 100% ex
Si tienen alguna duda o un comentario escribanme a:
Eliecer1306@hotmail.com
eliecerrodriguez@yahoo.com

Intro

Guitarra 1

e|-----------------------------------------|------------------------------------
B|-----------------------------------------|------------------------------------
G|---------------------------------6-4-7-6-|------------------------------------
D|-7h6-------7h6-------7h6-------6---------|-7h6-------7h6-------7h6-------3-6-3
A|-----7-7-7-----7-5-5-----7-4-4-----------|-----7-7-7-----7-7-5-----7-4-4------
E|-----------------------------------------|------------------------------------
Guitarra 2
         e|------------------------9----------------|-------------10-9s12-10-9-7
         B|---7-9-10-9-10S12-10-12---12-10-9-7------|---7-9-10-12---------------
         G|-6----------------------------------7-6--|-6-------------------------
         D|-----------------------------------------|---------------------------
         A|-----------------------------------------|---------------------------
         E|-----------------------------------------|---------------------------

 F#m              E            D
Que agradecido estoy guitarra mia
  Bm
tanto que voy a hacerte y regalarte
 C#7
mi mejor cancion
 F#m             E         D
El hombre que te hizo no sabia
                       Bm
que al ponerte en mis manos me
            C#7
iba a hacer tanto favor

         D        E         A
Por que tu que conoces mis penas
                    C#7
tu que siempre me llenas ese espacio
                F#m - F#
que habita el dolor
      D         E
y me alejas de toda
     A                    Bm
amargura, cuando te pido ayuda nunca
          C#7
dices que no.

  F#m           E             D
Cada vez que me acerco a tu lado
                     Bm
pienso en las cosas buenas que me
            C#7           F#m
has hecho sentir, cuantas noches
   E           D                Bm
conmigo has pasado, en las que casi
                  C#7
siempre no te dejo dormir

           D            E         A
Por que en ti siempre busco el alivio
              C#7
de mis sueños perdidos, de mis horas
               F#m--F#
de angustia y dolor
  D              E             A
cada vez que te tengo en mis manos
                   Bm
tanto es lo que te amo que te hice
         C#7
esta cancion

 F#m             E             D-C#7-F#m
que agradecido estoy guitarra mia....
Este fichero es trabajo propio de su transcriptor y representa su interpretación personal de la canción. El material contenido en esta página es para exclusivo uso privado, por lo que se prohibe su reproducción o retransmisión, así como su uso para fines comerciales.

Origen: Guitarra mía: Letra y Acordes (LaCuerda.net)


Otras partituras que podrían interesarte: