acordes.cc 
 letras y acordes > r > la rondalla de saltillo > granito de arena diccionario de acordes 
Granito de Arena de la Rondalla de Saltillo
AUTOR: -?-
la Rondalla de Saltillo Tabs
LaCuerda.net
imprimir Granito de Arena de la Rondalla de Saltillo 
HOLA¡¡ KE TAL¡¡......

Me hicieron una petición y estoy tratando de cumplirla...
La verdad esta canción también es otra belleza y joya del romanticismo que aún n
Agradezco a la persona kien me la pidió pues me ha dado aliento y confianza en s
mi trabajo ha sido de provecho para algunas personas que gustan de estas cancion

ACLARACIONES DE LAS TABLATURAS:

*Si ven frases entre () paréntesis debajo de algunos renglones, son coros,y van 
se escuchan en la canción..

********************************************************************************


AHORA SÍ....VAMOS A LOS TABS:

   Estos son el INTRO y los RIFFS tocados con GUITARRA:


El INTRO lo he dividido en dos partes, la PRIMERA es una GUITARRA solista y su a
La SEGUNDA PARTE es a dos GUITARRAS, una tocando LA PRIMERA PARTE TAL Y COMO EST
haciéndo unos acompañamientos con BAJOS que complementan a la melodía que es toc
en LA PRIMERA PARTE.


*TIP: Puede una GUITARRA tocar sólamente la primera y segunda cuerda en el INTRO
otra puede tocar los BAJOS con la tercera,cuarta y quinta cuerda en la SEGUNDA P
De esta forma, a DOS GUITARRAS no será problema ejecutarlo.



[INTRO] 


   RE           FA#m         SOL             LA
6|----------------------------------------------|      //Primera Parte del INTRO
5|----------------------------------------------|
4|----------------------------------------------|
3|----------------------------------------------|
2|--------10-----------10-----------------10--8-|
1|-10--------10--9---------9--7-----9--7--------|                          


   RE                   FA#m                 SOL                   LA
6|---------------------------------------------------------------------|//Segund
5|------7-9-------------------9----------------------------------------|
4|----------7-------------------7-9----7------9------------9---7---5---|
3|-------------------7---6----------------6------------6---------------|
2|---------------10-------------------10----------------------10---8---|
1|-10---------------10---9----------------9---7--------9---7-----------|        


................................................................................


[RIFF1]

                                        
*Este RIFF son Rasgueos rápidos como si fueran hechos con una 
Púa o Uñeta(de Arriba hacia abajo y viceversa):

     RE         SIm         SOL                  LA
6|-------------------------------------------------------|
5|-------------------------------------------------------|
4|-------------------------------------------------------|
3|-------------------------------------------------------|
2|---3-3-3-3----7-7-7-7-----3-3-3---3-3----3-3---2-2-2---|
1|----2-2-2-2----5-5-5-5-----5-5-5---2-2----5-5---0-0-0--|


................................................................................


[RIFF2]

 
    RE                SOL                 RE
6|-------------------------------------------------------------|
5|-------------------------------------------------------------|
4|-------------------------------------------------------------|
3|-------------------------------------------------------------|
2|------2-------2----------5-------5----------2-------2--------|
1|--1-------1----------3-------3----------1-------1-------1----|


................................................................................


[RIFF3]
Este es el adorno de la parte de enmedio de la canción...

    RE       SIm       SOL      LA           RE       SIm       SOL       LA
6|------------------------------------------------------------------------------
5|------------------------------------------------------------------------------
4|------------------------------------------------------------------------------
3|----------------------4----4--2--4--2--4-----------------------4------4--2--4-
2|--7--7--3---2--2--2---3--------------------7--7--3---2--2--2---3--------------
1|--5--5--5---1--1--0------------------------5--5--5---1--1--0------------------

 
    RE          SIm             SOL        LA               RE         SIm    
6|------------------------------------------------------------------------------
5|------------------------------------------------------------------------------
4|------------------------------------------------------------------------------
3|----------------------------------------------------------------------4-------
2|------7-----------7-----7-----8------5-8-----5------7--5--3----3--2---3-------
1|--5--------5---7----------7-5-------------5---------5--3--2----2--0-----------


   SOL              LA                RE            SOL            RE
6|------------------------------------------------------------------------------
5|------------------------------------------------------------------------------
4|------------------------------------------------------------------------------
3|--------2--4------------------------------------------------------------------
2|--------2--3---2---3----3--2--3--------3----3---------5----5---------3-----3--
1|---------------0---2----5--0--5-----2----2---------3----3---------2----2-----2

................................................................................


**AHORA YA ES TURNO DE EMPEZAR CON LA CANCIÓN:



'Quieres dejarme.....Para olvidarme...
Pero en tu triste soledad.......me llamarás'


[INTRO]y acompañamiento

    RE        SIm        SOL
Te quiero arrullar, arrullar
   LA            RE       SIm      SOL
Posándote en las olas del mar, del mar
 LA            RE       SIm
Atándote un granito de arena
      SOL   MIm
y así tu
      LA
en la niebla
     RE       SIm    SOL
escapar no podrás
           LA         [RIFF1]
y al lado mío te quedarás



     RE     SIm    SOL
Te quiero tener, tener
 LA          RE      SIm     SOL
atada con un rayo de sol, de sol
   LA           RE
y así con su calor
   SIm             SOL
la niebla, se desvanecerá
     LA
y tu corazón,
     RE       SIm   SOL
calentarse podrá
        LA            [RIFF2]
y nunca más frío sentirá


  RE          SOL
jamás, me dejarás
             RE             SOL
porque en la noche, te perderás
        RE    SIm
y sola, sola, 
           SOL   LA
sola en la noche
        RE   SIm SOL  LA
me llamarás



[RIFF3]



  RE          SOL
jamás, me dejarás
             RE             SOL
porque en la noche, te perderás
        RE    SIm
y sola, sola, 
           SOL   LA
sola en la noche
        RE   SIm SOL  LA
me llamarás



     RE     SIm    SOL
Te quiero tener, tener
  (quieeeeerooo)     (tener)

 LA          RE      SIm     SOL
atada con un rayo de sol, de sol
           (ataaaaaaaadaa)     (MI amor)
 
   LA           RE
y así con su calor
   SIm             SOL
la niebla, se desvanecerá
     LA
y tu corazón,
     RE       SIm   SOL
calentarse podrá
        LA            RE       SIm      SOL
y nunca más frío sentirá, sentirá, sentirá
        LA            RE       SIm      SOL
y nunca más frío sentirá, sentirá, sentirá
        LA            RE       SIm      SOL
y nunca más frío sentirá, sentirá, sentirá
        LA            RE       SIm      SOL
y nunca más frío sentirá, sentirá, sentirá....




Bueno, espero ke le hayan entendido a la canción y les haya 
gustado tanto como a mí el transcribirla.

Les mando saludos a todos akellos ke gustan de esta música y 
sobre todo a mis hermanos de la rondalla 
'Voces' de Tapachula Chiapas...

Comentarios....Sugerencias...Dinero...Peticiones....
Reclamos....Fotos...Amenazas...Mails cadena...o 
deseos de agregarme a sus lista de contactos....ya saben mi 
dirección..... Hasta pronto¡¡¡
Este fichero es trabajo propio de su transcriptor y representa su interpretación personal de la canción. El material contenido en esta página es para exclusivo uso privado, por lo que se prohibe su reproducción o retransmisión, así como su uso para fines comerciales.

Fuente: Granito de Arena: Letra y Acordes (LaCuerda.net)


Otras partituras que podrían interesarte: