acordes.cc 
 letras y acordes > r > rata blanca > gente del sur diccionario de acordes 
Gente del Sur de Rata Blanca
AUTOR: Walter Giardino
Rata Blanca Tabs
LaCuerda.net
imprimir Gente del Sur de Rata Blanca 
   INTRODUCCION
    F#                              E               F#        E  F#
e:--2-2-2-2-2-2-2-2-2-2-2-2-2-2-2-2-0-0-0-0-0-0-0-0-2-2-2-2-2-0--2-2-2-2-2-2-|
B:--4-4-4-4-4-4-4-4-5-5-5-5-5-5-5-5-2-2-2-2-2-2-2-2-4-4-4-4-4-2--5-5-5-5-5-5-|
G:---------------------------------------------------------------------------|
D:---------------------------------------------------------------------------|
A:---------------------------------------------------------------------------|
E:---------------------------------------------------------------------------|


                                                       

                      A        E         F#
e:2-2-2-2-2-2-2-2-2-2-5--------0---------2----------4-|
B:5-5-4-4-4-4-4-4-4-4----4-5-7----4-5-7--4----4-2-0---|
G:----------------------------------------------------|   
D:----------------------------------------------------|   
A:----------------------------------------------------|
E:----------------------------------------------------|


       A       E    C#            F#
      La soledad , no es mal camino

       D       F#     A    E      F#
      en este mundo,  todo esta mal

       A       E        C#               F#
      La   sociedad ,  sigue   mostrando

       D       F#       A       E       F#     F# - E 
      que es solamente,  parte del mal

CORO:  D         E    C#          F#
      puedo contarte,   tristes historias

       D           A         B    C#
      que en estas tierras viví

       D          E     C#      F# 
      puedo sentir ,  hondas heridas 

       D            A        E     F#
      que mortifican mi ser       por ver tanta injusticia





       A         E     C#              F#
      madres de hoy,      lloran sus hijos

       D         F#    A    E      F#
      en una plaza   de la ciudad
      
       A          E        C#            F#
      y el gran imperio,  bebió la sangre

       D      F#         A     E      F#     F#-E 
      del que pedia  ,  su libertad

CORO:  D         E     C#        F#
      No se muy bien ,  cual fue la gloria
 
       D         A       B     C#
      en esta guerra del sur

       D          E     C#       F#
      hoy puedo ver,  miles de cruces

       D       A               E     F#
      en estas islas que Dios       Nos dio a todos los hombres


CORO:  D       E     C#        F#
      En soledad hoy los recuerdo

       D        A       B       C#
      gente valiente del sur

       D        E       C#        F#
      y la verdad ,    solo es divina

       D        A               E       F#
      solo es cuestion de esperar       que Dios haga justicia.
Este fichero es trabajo propio de su transcriptor y representa su interpretación personal de la canción. El material contenido en esta página es para exclusivo uso privado, por lo que se prohibe su reproducción o retransmisión, así como su uso para fines comerciales.

Fuente: Gente del Sur: Letra y Acordes (LaCuerda.net)


Otras partituras que podrían interesarte: