acordes.cc 
 letras y acordes > c > charly garcía > filosofía barata y zapatos de goma diccionario de acordes 
Filosofía barata y zapatos de goma de Charly García
AUTOR: Charly García
Charly García Tabs
LaCuerda.net
imprimir Filosofía barata y zapatos de goma de Charly García 
Intro: C Em7 Am7 Abmaj7 C/G
       C Em7 Am7 Abmaj7 Abmaj7/Bb

  C                Em7      Am7
Conozco un empleado que fue muerto de pena
      Csus2/Ab     C/G    G7
enamorado de las sirenas.
    C              Em7    Am7
El cine de mi barrio ya me mostró la escena                    e B G D A E
         Csus2/Ab             C                      Csus2/Ab= 3-3-5-5-x-4
no ví tu alma y quería tus venas.

     F              C/E   Dm7
Y en este torbellino dónde nada importa
    F                    G     G7
me sentí aliado y te perdí
   C              Em7       Am7
pero sí vi tus ojos y hasta comí la arena
          Csus2/Ab      C
quise quedarme pero me fui.

Inter: C Em7 Am7 Abmaj7
       C Em7 Am7 Abmaj7  Abmaj7/Bb

   C          Em7      Am7
Filosofía barata y zapatos de goma
           Csus2/Ab       C/G    G7
ni ésta mentira te hace feliz
C         Em7          Am7
 quise quedarme cuando morí de pena
          Csus2/Ab      C
quise quedarme pero me fui.

F                Dm7
 Y en la terminal, y en la terminal
   F                         G    G7
estoy descalzo y te espero a ti.
   C               Em7     Am7
El ómnibus se ha ido, el amor se ha vencido
          Csus2/Ab        C
quise quedarme pero me fui.
   C           Em7   Am7
Filosofía barata y zapatos de goma
          Csus2/Ab
quizás es todo lo que te dí.

Coda: Am |  |  |  *|
      F - C | B7 - E7 | Am |   | x3
      Am |  |   ||

-----------------------------------------------
Melodía de teclados (comienza en minuto 2:11):
        F       C         B7     E7      Am
e-----|-----------------|--------------|------------|
B---0-|-1---0-----------|--------------|------------|
G-2---|-------2-0-------|--------------|------------|
D-----|-------------3-2-|-1------0-----|------------|
A-----|-----------------|--------------|-3----------|
E-----|-----------------|--------------|------------|

Riff final sobre Am (comienza en minuto 2:36):
e------------------------------------|
B------------------------------------|
G------------------|-----------------|
D------------------|-----------------|
A(7)----(7)-----(5)|(7)---------3----|
E-5------5-------3-|-5-------3h5-5p3-|.
Este fichero es trabajo propio de su transcriptor y representa su interpretación personal de la canción. El material contenido en esta página es para exclusivo uso privado, por lo que se prohibe su reproducción o retransmisión, así como su uso para fines comerciales.

Fuente: Filosofía barata y zapatos de goma: Letra y Acordes (LaCuerda.net)


Otras partituras que podrían interesarte: