acordes.cc 
 letras y acordes > g > guasones > fiebre diccionario de acordes 
Fiebre de Guasones
AUTOR: Esteban Monti
Guasones Tabs
LaCuerda.net
imprimir Fiebre de Guasones 
Intro: 

            Am             Am             G             E
e-------|---0---|-------|---0---|-------|--1--|------|--0--|
B-------|---1---|-------|---1---|-------|--0--|------|--0--|
G-------|---2---|-------|---2---|-------|--0--|------|--1--|
D-------|---2---|-------|---2---|-------|--0--|------|--2--|
A-------|---0---|-------|---0---|--2-0--|--2--|------|--2--|
E--0-3--|-------|--0-3--|-------|-------|--3--|-5-0--|--0--|

Am                       G         E
Hoy escucho tus palabras como un anhelo
Am
distante, absurdo
G         E            Intro
destino incierto..... de dos

Am                   G       E
Maravilla encontrada en el calor
            Am
de algun bar, si pienso tu rumbo,
G        E
no lo imagino...

e------------
B------------
G---5-4------
D-------5-0--
A------------
E------------

F5           G5
De dos, para vos
  F5           G5    E5
Si yo, no soy yo...


     A5     G5 - F5
Sin amor
     A5     G5 - F5
Sin dolor
        A5               G5 - F5
Sin un gramo de locura
                  A5     G5 - F5
para olvidarme de vos


El resto del tema lo unico que cambia es la letra asique
no lo pongo
Este fichero es trabajo propio de su transcriptor y representa su interpretación personal de la canción. El material contenido en esta página es para exclusivo uso privado, por lo que se prohibe su reproducción o retransmisión, así como su uso para fines comerciales.

Fuente: Fiebre: Letra y Acordes (LaCuerda.net)


Otras partituras que podrían interesarte: