acordes.cc 
 letras y acordes > l > la ley > everytime diccionario de acordes 
Everytime de la Ley
AUTOR: La ley
la Ley Tabs
LaCuerda.net
imprimir Everytime de la Ley 
INTRO:  Bm   Gm   D

   Bm        Gm           D   (RIFF INTRO)
     EVERYTIME IS TIME TO GO
              Em                               A7
     IN MANY WAYS EVERY DREAM LOOK`S LIKE A LONG ROAD
                Em                           A7
     WITH LITTLE TIME I WILL FLY WITHIN YOUR SKY

   Bm        Gm           D
     EVERYTIME IS TIME TO GO,
   Bm          Gm             D
     EVERYWHILE IS FOR US TO HOLD

               Em                         A7
     ALONG THE WAY YOUR DESTRUCTION IS MY LIFE
                 Em                           A7
     WITH LITTLE TIME I WILL FLY DEEP IN YOUR SMILE

    Bm              Gm         D
     CAUSE EVERYTIME IS TIME TO GO
    Bm             Gm           D
     AND EVERYWHILE FOR US TO HOLD

           Em                                 A7
     IN MANY WAYS EVERY DREAM LOOK`S LIKE A LONG ROAD
            Em                              A7
     IS MY DESIRE TO PROTECT YOUR LIPS WITH MINE...
              C     G     D
     WITH MINE...
                C          G                  D
     DON`T BE SAD AND LONELY THERE`S A WHOLE LIFE
                                            Bm-Gm-D (RIFF INTRO)
     WAITING OUT YOUR DOOR...     DON`T BE SAD

               Em                         A7
     I`M ON THE WAY TO LEAVE EVERYTHING BEHIND
               Em                         A7
     FOR MANY HOURS WE`LL BE FUGITIVES OF TIME

   Bm                Gm          D
     CAUSE EVERYTIME IS TIME TO GO
   Bm              Gm              D
     AND EVERYWHILE IS FOR US TO HOLD
   Bm           Gm         D
     EVERYTIME IS TIME TO GO
   Bm               Gm             D
     AND EVERYWHILE IS FOR US TO HOLD
   Bm        Gm
     EVERYTIME.-


  'RIFF INTRO'

  e----------------------------
  B----------------------------
  G----------------------------
  D----------------------------
  A-0-0-0-2-2-2-4-4-4-5-0-2----
  E----------------------------


  'PUNTEO CORO (I)'

  e----------------------------
  B-7/10-10-10/7-7/5-5-5/7-----
  G----------------------------          ( 2 VECES)
  D----------------------------
  A----------------------------
  E----------------------------


  'PUNTEO CORO  (II)'

  e----------------------------
  B-7/12-12-12-10-10-8-8-8/7---
  G----------------------------    ( 2 VECES)
  D----------------------------
  A----------------------------
  E----------------------------

  ''''OJO'''':   CORO = I y II 2 VECES

  “SOLO (1)”

  e-----------------------------------------------
  B-10-12-10V-------------------------------------
  G--------------9V-------------------------------
  D------------------10-9-7-9-9/10-10-9/7-7-7VVVV-
  A-----------------------------------------------
  E-----------------------------------------------


  “SOLO (2)”

  e-------------------------------------10/12-10V---------
  B-10-12-10V----------------10V----------------10V-8V-7V-
  G--------------9V---------------------------------------
  D------------------10-10/12-----------------------------
  A-------------------------------------------------------
  E-------------------------------------------------------



  FRUGO.-
Este fichero es trabajo propio de su transcriptor y representa su interpretación personal de la canción. El material contenido en esta página es para exclusivo uso privado, por lo que se prohibe su reproducción o retransmisión, así como su uso para fines comerciales.

Fuente: Everytime: Letra y Acordes (LaCuerda.net)


Otras partituras que podrían interesarte: