acordes.cc 
 letras y acordes > e > enrique bunbury > estrellas diccionario de acordes 
Estrellas de Enrique Bunbury
AUTOR: Enrique Bunbury
Enrique Bunbury Tabs
LaCuerda.net
imprimir Estrellas de Enrique Bunbury 
Soy nuevo en esto así que cualquier error, mil disculpas y cualquier
corrección háganmela saber. Esto es un inédito de Enrique Bunbury 
que es muy probable haya tocado cuando estaba con los héroes.

Introducción y final
Después de la introducción con flauta se toca esto:

      F#m                           Bm          
-------------------------     ------------------------- 
------------2---2-------2     ------------3-----------3
--------------2---------- x2  ----------4---4-------4--  x2
----------4-----------4--     --------4-------4---4----
--------4-----------4----     -0-4--2-----------2------   
-0-1--2-----------2------     -------------------------
 
      C#m                C#m-Cm-Bm
--------------------------------------------------
-----------5-----------5---5-4-------3-----------3 
---------6---6-------6-----6-5-----4---4-------4--   
-------6-------6---6-------6-5---4-------4---4----  
-0-2-4-----------4---------4-3-2-----------2------ 
--------------------------------------------------  
Luego se repite el 1er arpegio y termina rasgando 5 veces el F#m
Cuando se rasgan los acordes en los versos sólo se usa la 4,5 y 6 cuerda.

F#m
La gente tiene estrellas

que no son las mismas
Bm
para unos son días

para otros luces pequeñas
F#m
pero para mí son problemas

todos son problemas
          C#m     C#m-Cm-Bm
y para tí mi reina

tendrás una estrella
F#m
como nadie como nadie la tenga

F#m
en manos en manos de la tregua 
supera el fruto de la ciencia
Bm
su rigor y su belleza
como guirnaldas de violetas
F#m
me dictaron me dictaron las estrellas
             C#m                 C#m-Cm-Bm
que que para tí mariposa de menta
siempre habrá una de ellas
F#m
como nadie la tenga 
como nadie la tenga

Si quieren bajar la canción aquí está:
http://bunbury.metropoli2000.net/ebaudio.htm
Judy lo hice por tí TAAMMQD   YO +
Este fichero es trabajo propio de su transcriptor y representa su interpretación personal de la canción. El material contenido en esta página es para exclusivo uso privado, por lo que se prohibe su reproducción o retransmisión, así como su uso para fines comerciales.

Fuente: Estrellas: Letra y Acordes (LaCuerda.net)


Otras partituras que podrían interesarte: