acordes.cc 
 letras y acordes > s > soziedad alkoholika > estado enfermo diccionario de acordes 
Estado Enfermo de Soziedad Alkoholika
AUTOR: -?-
Soziedad Alkoholika Tabs
LaCuerda.net
imprimir Estado Enfermo de Soziedad Alkoholika 
+ Tabulados de made in spain!                   +
+ [http://mades.kaos.es]                        +
+++++++++++++++++++++++++++++++++++++++++++++++++

e |--------------------|
B |--------------------|
G |---9---12---9---7---|
D |---9---12---9---7---|
A |---7---10---7---5---|
E |--------------------|

        Estos acordes se tocan durante toda la canción con
   algunas variaciones dejando de tocar el acorde:
e |-----|
B |-----|
G |--9--|
D |--9--|
A |--7--|
E |-----|
        Durante algunas partes de la canción continuando el
   mismo ritmo pero sonando en su lugar el bajo

   Cuando comienza la parte "....EL TERROR, ESTE TERROR...."

 e |-------------------------------------------|
 B |-------------------------------------------|
 G |--9-----7\8\9----9-----9\10\11-----9-------|
 D |--9-----7\8\9----9-----9\10\11-----9-------|
 A |--7-----5\6\7----7-----7\8-\9------7-------|
 E |-------------------------------------------|

        Repetirlo varias veces y luego continuar tocando

 e |--------------------|
 B |--------------------|
 G |---9---12---9---7---|
 D |---9---12---9---7---|
 A |---7---10---7---5---|
 E |--------------------|


        Para saber  las veces que se toca cada acorde y  el
   ritmo, escuchadlo en la cinta o el CD.....
Este fichero es trabajo propio de su transcriptor y representa su interpretación personal de la canción. El material contenido en esta página es para exclusivo uso privado, por lo que se prohibe su reproducción o retransmisión, así como su uso para fines comerciales.

Fuente: Estado Enfermo: Letra y Acordes (LaCuerda.net)


Otras partituras que podrían interesarte: