acordes.cc 
 letras y acordes > e > enrique iglesias > escape diccionario de acordes 
Escape de Enrique Iglesias
AUTOR: Kara DioGuardi, Enrique Iglesias, Steve Morales, David Siegel
Enrique Iglesias Tabs
LaCuerda.net
imprimir Escape de Enrique Iglesias 
Toda la canción va con las mismas pisadas y se necesitan 
dos guitarras para que una toque el ritmo y otra el arpegio
 
INTRO
e---------------------------------
B---------------------------------
G-----4---4---4-------4---4---3---
D---4---4---2---2---------------4-
A-2-----------------6---6---------
E-----------------4---------2-----

CANCION
e-------------------------------------
B-------------------------------------
G-4---4---------4-------4---------3---
D---4---4-2-2-2---2-6---------------4-
A-2-------------------6---6-----------
E-------------------4-------2-2-2-----

(aunque quieras no puedes escapar)

hey tu y yo
es así
sube y baja pero un día al 

B
fin
         Bm9
sin querer
         G#m
nos va bien
       F#  
como uno a dicho se 

acabo
una voz (una voz)
y si no y se queda

CHORUS

si decides dejarme
no te voy a suplicar
halla tu si mas tarde
aunque corras, te escondas, no puedes
escapar
        e-7-7-6--
        B------7-
        G--------
aunque corras  E-7-6-7-7s9-
               B-----------
               G-----------
te escondas, no puedes escapar

hoy 
si te vas
ya veras (ya veras)
que no es tan fácil 

olvidar
sabe bien 
sabe mal (sabe mal)
como sea pero es tan 

real 
que al final 
lo demás no te importa 

(no no no yea)

CHORUS

huirás, (huirás) 
te escondera ááás (esconderás) 
pero no te escaparas (no te escaparas)
correeras (huirás) 
te esconderás (te esconderás)
pero no te escaparas

hoy una voz
dice no y se queda
             (corre y dime adiós)

SI decides dejarme
no te voy a suplicar (no suplicare)
halla tu si mas tarde (u si mas tarde)
aunque corras, te escondas, no puedes
escapar

(a aaa aa aaa)
SI decides dejarme
no te voy a suplicar 
halla tu si mas tarde 
aunque corras, te escondas, no puedes
escapar

yo quiero  uju [x4]
yo quiero  uju
(hoy dime adiós, corre y ya veras)
yo quiero  uju
(y nunca vas para escapar)
yo quiero  uju
(hoy dime adiós, corre y ya veras)
yo quiero  uju
(y nunca vas para escapar)

yo quiero  uju [x2] 

INTRO

   B  Bm9  G#m   F#
e-2----2----4-----2----
B-4----2----4-----2----
G-4----4----4-----3----
D-4----4----6-----4----
A-2----2----6-----4----
E-2----2----4-----2----

Saludos a JxC del chino
Este fichero es trabajo propio de su transcriptor y representa su interpretación personal de la canción. El material contenido en esta página es para exclusivo uso privado, por lo que se prohibe su reproducción o retransmisión, así como su uso para fines comerciales.

Fuente: Escape: Letra y Acordes (LaCuerda.net)


Otras partituras que podrían interesarte: