acordes.cc 
 letras y acordes > c > camilo sesto > entre amigos diccionario de acordes 
Entre Amigos de Camilo Sesto
AUTOR: Camilo Blanes
Camilo Sesto Tabs
LaCuerda.net
imprimir Entre Amigos de Camilo Sesto 
Esta canción se la dedico especialmente a tres mujeres muy especiales,
que han influido de una u otra forma en mi vida, Nelcy ,Monica y Yuliana.
si existe algun error o sugerencia, escribanme por favor, les estare agradecido.
disfrutenla.


INTRO

E -------------------------------------------------------------I
B ----8/9-5-------5---9/10-9--------5--9-7-9--7--97-7---------I
G -----------6-8---------------6-8---------------------8-------I
D -------------------------------------------------------------I
A -------------------------------------------------------------I
E -------------------------------------------------------------I

E -------------------------------------9-7-9--9-10/11--9-------I
B --11/12-9-------9--12/13-12-------9--------------------9-----I
G -----------9-11--------------9-11----------------------------I
D -------------------------------------------------------------I
A -------------------------------------------------------------I
E -------------------------------------------------------------I


VERSO I

 E
En el espejo de mi vida,
 B
aparecistes tu
 C#m
Eres como un sol naciente,
 G#
eres como eres tu

 E
Todo lo apredimos juntos,
 B
fue como empezar,
 C#m
con orgullo y en voz alta,
 G#
hoy quiero pregonar...


CORO

B                           E      B
Que entre amigos, no hay secretos,
B                    E      B
hay respeto a la verdad,
A       G#          C#m
Los errores, se perdonan sin rencores,

no hay distancias en el tiempo,

las raíces van creciendo,
        A               G#
entre amigos, como tú y yo...


B                  E      B
Paso a paso de mi vida,
B                         E      B
un mundo absurdo me arrastro,
  A         G#            C#m
hasta encontrarte, fui la sombra de mismo,

y mi undía en el abismo,

de mi estúpido egoísmo,
          A                 G#
y era el rey, de mi propia ley.


VERSO II

 E
Para mi no eres solo sexo,
 B
eres mucho más,
 C#m
la respuesta a mis preguntas,
 G#
y la luz al despertar.

 E
Todo lo apredimos juntos,
 B
fue como empezar,
 C#m
con orgullo y en voz alta,
 G#
hoy quiero pregonar...


CORO

B                           E      B
Que entre amigos, no hay secretos,
B                    E      B
hay respeto a la verdad,
A       G#          C#m
Los errores, se perdonan sin rencores,

no hay distancias en el tiempo,

las raíces van creciendo,
        A               G#
entre amigos, como tú y yo...


E ----------------------------------------9-7-9--9-10/11--9-------I
B --11/12-9-9------9--12/13-12-12------9--------------------------I
G ------------9-11----------------9-11----------------------------I
D ----------------------------------------------------------------I
A ----------------------------------------------------------------I
E ----------------------------------------------------------------I

(CORO IGUAL HASTA EL FINAL)
Este fichero es trabajo propio de su transcriptor y representa su interpretación personal de la canción. El material contenido en esta página es para exclusivo uso privado, por lo que se prohibe su reproducción o retransmisión, así como su uso para fines comerciales.

Fuente: Entre Amigos: Letra y Acordes (LaCuerda.net)


Otras partituras que podrían interesarte: