acordes.cc 
 letras y acordes > a > attaque 77 > ella diccionario de acordes 
Ella de Attaque 77
AUTOR: -?-
Attaque 77 Tabs
LaCuerda.net
imprimir Ella de Attaque 77 
intro: [F#m D E B] x2  +      F#m   E     C#
                        G|---/11------------
                        D|--------/14---/11-


 F#m
Esta noche te querés drogar
 A
esta no noche no sabes que hacer
  C#                                F#m              A
lo que habías pensado terminó cuando me viste a mi

 F#m
Esta noche te querés drogar
 A
esta no noche no sabes que hacer
  C#                                F#m              A
lo que habías pensado terminó cuando me viste a mi


 D        E        A
y no pudiste resistirte a pensar mal,
 D        E        A            C#
vos no pudiste resistirte a pensar mal



  F#m       D    E  B  F#m   D     E  B  F#m     E     C#
por qué, no me decís el asco que te doy? El asco que te doy

  F#m       D    E  B  F#m   D     E  B  F#m     E     C#
por qué, no me decís el asco que te doy? El asco que te doy


  D         E  B     D    E         B
pediste por favor que te trague la tierra,
  D          E          C#
puteaste muchas veces a Dios


  F#m
No voy a detenerme no voy a perdonarte,
  A
quiero decirte algo que tengo para vos;
   C#                                    A
andate a la reputa madre que te parió


D        E        A
y no pudiste resistirte a pensar mal,
 D        E        A            C#
vos no pudiste resistirte a pensar mal


F#m       D    E  B  F#m   D     E  B  F#m     E     C#
por qué, no me decís el asco que te doy? El asco que te doy

  F#m       D    E  B  F#m   D     E  B  F#m     E     C#
por qué, no me decís el asco que te doy? El asco que te doy


Solo

e|---------------------------------------------------------------------
B|-----------------------------------------------------------/10------
G|-----------------------------------------------------------/9-------
D|-----9-----------------------9-----------------------9-11-----------
A|-7-9---12--12-11-7-9-----7-9---12--12-11-7-9----9-12----------------
E|---------------------------------------------------------------------


e|---------------------------------------------------------------------
B|------12-------------------------12--------------------------/14/14--
G|-9-11----14--14-13-9-11-----9-11----14--14-13-9-11----9-11---/13/13--
D|---------------------------------------------------------------------
A|---------------------------------------------------------------------
E|---------------------------------------------------------------------


F# D     E     B
La amo y ella lo sabe

F# D     E     B
la amo y ella lo sabe

F# E   C#
LA amo


Repite unas cuantas veces mas
---------------------------------------------

este tab está dedicado a la nena por las vueltas vividas y las
que nos quedan por dar y a jirafa por ser el otro attaquero y
por que además es parecido a ciro jajajajajajaj contento jirafa? jajaajaj
  ---- > www.losporongas.8k.com <------
Este fichero es trabajo propio de su transcriptor y representa su interpretación personal de la canción. El material contenido en esta página es para exclusivo uso privado, por lo que se prohibe su reproducción o retransmisión, así como su uso para fines comerciales.

Fuente: Ella: Letra y Acordes (LaCuerda.net)


Otras partituras que podrían interesarte: