acordes.cc 
 letras y acordes > a > almafuerte > el pibe tigre diccionario de acordes · afinador online · acordes guitarra
El pibe tigre de Almafuerte
AUTOR: Almafuerte
Almafuerte Tabs
LaCuerda.net
imprimir El pibe tigre de Almafuerte 
INTRO:
e-|------------|------------|------------|-----------------------|
B-|------------|------------|------------|-----------------------|
G-|------------|------------|------------|-----------------------|
D-|-----7------|-----7------|-----7------|---7-------7-------7---|
A-|-7-5-5--7-2-|-7-5-5--7-2-|-7-5-5--7-2-|-5-5--77-5-5--77-5-5-7-|
E-|-5-3----5-0-|-5-3----5-0-|-5-3----5-0-|-3----55-3----55-3---5-|
                                                                     
-|-----------------|-----------------------------------------------
-|-----------------|-----------------------------------------------
-|-------------2-4-|---7---7-7-----------7---7-7----------7---7-7--
-|-------2-4-5-0-2-|---5---5-5--7-9------5---5-5--7-5-----5---5-5--
-|-2-4-5-0-2-3-----|------------5-7---------------5-5--------------
-|-0-2-3-----------|-0---0------------0----0--------3---0---0------
                                                                     
---------------------|---------------------|-
---------------------|---------------------|-
-------7---7-7-------|---------------------|-
-7-9---5---5-5--7-5--|-9-7-5-4-2-----------|-
-5-7------------5-5--|-7-5-3-2-0-5-4-5---2-|-
-----0---0--------3--|-----------3-2-3---0-|-
         
E5
Ma帽ana es ya y sin achiques,
el pibe marcha pedaleando a laburar.
Desayun贸 mate de origen
Mastic贸 algo, prendi贸 un faso y se alej贸.
C5           B5    D5         C#5
A ganarse un hueso como changar铆n,
C5            B5        D5           C#5
de un trompa extranjero que compra el pa铆s.
con Riff 1
y lo derrite despu茅s.
Haciendo al pibe que estibe.
E5
Lo vi volver, tarde y deshecho.
De su batalla cotidiana hecha hoy canci贸n.
Sonri贸 al entrar, Tom贸 alimento.
Dej贸 en la mesa lo ganado, y se acost贸.
C5            B5       D5     C#5
Rez贸 a Dios pidiendo antes de dormir 
C5           B5     D5         C#5
por ser contratado, obteniendo as铆
con Riff 1
los beneficios de ser un efectivo por ley.
E5
Ma帽ana es ya, Despierta el pibe,
que esperanzado nuevamente va otra vez.
Duro al pedal, pitando un firme.
De obra social sus sue帽os son hasta que ve.
Acreditadores, agitandose.
El galp贸n vac铆o, la yuta y el juez.
Y a quienes dicen, que 茅l,
carg贸 el derrite ayer.
Riff 2
F#5
un oficial se lleva al pibe.
Como implicado en el embrollo que estall贸.
y en su natal pa铆s de origen,
el trompa gringo aterriza con el mont贸n.
C5           B5     D5      C#5
隆Dale, cant谩 pibe!, Dice el golpeador.
C5             B5         D5          C#5     
驴Donde est谩 el derrite?, 驴Qui茅n se lo llev贸?
Con Riff 1
Una vez libre volvi贸,
sin ser el mismo. Ya no.
Riff 2
Riff 3
Solo de Guitarra con acordes: E A E A F#
Le dieron sin asco, hasta que cay贸,
para ser pateado, hasta que muri贸.
El pibe tigre aquel,
del barrio Carlos Gardel.
Fue a caj贸n cerrado,
que se lo vel贸.
Pues fue desmembrado como donador,
el pibe tigre aquel del barrio Carlos Gardel.
驴Porqu茅 ser谩, que a煤n es esto
posible de ser?
Final: 
Riff 2 
Riff 3
RIFF 1
-|------------------|-----------------------|-
-|------------------|-----------------------|-
-|---7---7-7--7-----|----7---7-7--7---------|-
-|---5---5-5--5-7-9-|----5---5-5--5------5--|-
-|--------------5-7-|---------------5h7-----|-
-|-0---0------------|--0---0----------------|-   
RIFF 2
-|--------------------|-
-|--------------------|-
-|--------------------|-
-|-9-7-5-4-2----------|-
-|-7-5-3-2-0-5-4-5--2-|-
-|-----------3-2-3--0-|-
RIFF 3
-|-------------------|-----------|-
-|-------------------|-----------|-
-|-------------------|-----------|-
-|-2-2---2-2---2-9-8-|-----7-----|-
-|-2-2---2-2---2-9-8-|-7-5-5-7-2-|-
-|-0-0---0-0---0-7-6-|-5-3---5-0-|-
Este fichero es trabajo propio de su transcriptor y representa su interpretaci髇 personal de la canci髇. El material contenido en esta p醙ina es para exclusivo uso privado, por lo que se prohibe su reproducci髇 o retransmisi髇, as como su uso para fines comerciales.

Fuente: El pibe tigre: Acordes de Guitarra (LaCuerda.net)


Otras partituras que podr韆n interesarte: