acordes.cc 
 letras y acordes > f > la frontera > el límite diccionario de acordes 
El Límite de la Frontera
AUTOR: Javier Andreu
Vota por la Frontera
100votos.com


la Frontera Tabs
LaCuerda.net
imprimir El Límite de la Frontera 

Bueno como veo k en ningun lado esta la tablatura de esta fantastica
cancion me veo obligado a subirla.
Esta sacada de oido pero yo creo k esta bastante correcta.
Aora a partir de mi aportacion hagan las correciones pertinentes

Inicio

E -------------------------------------------------------3-0----
B -----------------------------------------------------------0--
G --------------------------------------------------------------
D ------------------------5-5-----------------------------------
A -5h7-5h7p5-----------5-------7---5h7-5h7p5-----------7--------
E ------------7-5-3-7-------------------------7-5-3-7-----------


E --------------------------------------------------------------
B ------------------8-7----------8-7h8p7------------------------
G ----------------------7---7h9----------9-7----7---------------
D -5h7-5h7p5---5-7--------7-------------------9---9-9-9--7------
A -----------7----------------------------------------------7---
E --------------------------------------------------------------


E ------------------------7-------------------10------------12--
B -8-7h8p7------------------10---8-10-8-10/12----12-12-10/8-----
G ---------9-7---7-------------9--------------------------------
D -------------9---9-9-9----------------------------------------
A --------------------------------------------------------------
E --------------------------------------------------------------


El solo



E -------------------------------10-----------------------------
B -10b12-10b12-12-10-8--8-10/12----12-10-10h12p10-10-8-8---8-10-
G ---------------------9---------------------------------9------
D --------------------------------------------------------------
A --------------------------------------------------------------
E --------------------------------------------------------------


E--------------------10---10-----------12b-12-10----------------
B-13--10h12p10----10----12---12--10--------------12-------------
G--------------12-------------------12--------------12/9--9-9---
D---------------------------------------------------------------
A---------------------------------------------------------------
E---------------------------------------------------------------


E-----------10-10h12p10---10--12--------------------------------
B-----------------------12--------------------------------------
G-9h12p9--12----------------------------------------------------
D---------------------------------------------------------------
A---------------------------------------------------------------
E---------------------------------------------------------------


Y el final

E---------------------------------------------------------------
B-8-7h8p7------12-10----12-10-----8-7h8p7-----12-10----12-10----
G----------9-7--------9--------9----------9-7--------9--------9-
D---------------------------------------------------------------
A---------------------------------------------------------------
E---------------------------------------------------------------


E---------------------------------------------------------------
B-8-7h8p7--------------------------------8-8h10-8-10-12b-12-10--
G---------9-7-7----------------7-7h9-7-9------------------------
D----------------9----7-7h9-7-9---------------------------------
A-------------------7-------------------------------------------
E---------------------------------------------------------------


E---------12-10/7/3---------------------------------------------
B-8-10----------------------------------------------------------
G---------------------------------------------------------------
D---------------------------------------------------------------
A---------------------------------------------------------------
E---------------------------------------------------------------

el resto de solos son de saxo.
bueno ai dejo esto espero sirva de algo xd
Este fichero es trabajo propio de su transcriptor y representa su interpretación personal de la canción. El material contenido en esta página es para exclusivo uso privado, por lo que se prohibe su reproducción o retransmisión, así como su uso para fines comerciales.

Origen: El Límite: Letra y Acordes (LaCuerda.net)


Otras partituras que podrían interesarte: