acordes.cc 
 letras y acordes > e > enrique bunbury > el extranjero diccionario de acordes 
El extranjero de Enrique Bunbury
AUTOR: Enrique Bunbury, Copi
Enrique Bunbury Tabs
LaCuerda.net
imprimir El extranjero de Enrique Bunbury 
                            El Extranjero

NOTA:

Espero y te ayude en algo esta tab.

Si necesitas una tab en especial, escríbeme o visita...

http://www.myspace.com/alejandrolauyola



     W                   W                   E  E  E  E  E  E  E  E
G||-------------------|-------------------|--------------------------|
D||-------------------|-------------------|--------------------------|
A||-------------------|-------------------|--2-----------2-----------|
E||-------------------|-------------------|--------2-----------2-----|


  E  E  E  E  E  E  E  E     E  E  E  E  E  E  E  E
--------------------------|--------------------------|
--------------------------|--------------------------|
--2-----------2-----------|--2-----------2-----------|
--------2-----------2-----|--------2-----------2-----|


  E  E  E  E  E  E  E  E     E  E  E  E  E  E  E  E
--------------------------|--------------------------|
--------------------------|--------------------------|
--2-----------2-----------|--2-----------2-----------|
--------2-----------2-----|--------2-----------2-----|


  E  E  E  E  E  E  E  E     E  E  E  E  E  E  E  E
--------------------------|--------------------------|
--------------------------|--------------------------|
--2-----------2-----------|--2-----------2-----------|
--------2-----------2-----|--------2-----------2-----|


  E  E  E  E  E  E  E  E     E  E  E  E  E  E  E  E
--------------------------|--------------------------|
--------------------------|--2-----------2-----------|
--2-----------2-----------|--------2-----------2-----|
--------2-----------2-----|--------------------------|


  E  E  E  E  E  E  E  E     E  E  E  E  E  E  E  E
--------------------------|--------------------------|
--2-----------2-----------|--------------------------|
--------2-----------2-----|--2-----------2-----------|
--------------------------|--------2-----------2-----|


  E  E  E  E  E  E  E  E     E  E  E  E  E  E  E  E
--------------------------|--------------------------|
--------------------------|--0-----------0-----------|
--2-----------2-----------|--------0-----------0-----|
--------2-----------2-----|--------------------------|


  E  E  E  E  E  E  E  E     E  E  E  E  E  E  E  E
--------------------------|--------------------------|
--0-----------0-----------|--0-----------0-----------|
--------0-----------0-----|--------0-----------0-----|
--------------------------|--------------------------|


  E  E  E  E  E  E  E  E     E  E  E  E  E  E  E  E
--------------------------|--------------------------|
--0-----------0-----------|--------------------------|
--------0-----------0-----|--3-----------3-----------|
--------------------------|--------3-----------3-----|


  E  E  E  E  E  E  E  E     E  E  E  E  E  E  E  E
--------------------------|--------------------------|
--------------------------|--2-----------2-----------|
--3-----------3-----------|--------2-----------2-----|
--------3-----------3-----|--------------------------|


  E  E  E  E  E  E  E  E     E  E  E  E  E  E  E  E
--------------------------|--------------------------|
--2-----------2-----------|--------------------------|
--------2-----------2-----|--4-----------4-----------|
--------------------------|--------4-----------4-----|


  E  E  E  E  E  E  E  E     E  E  E  E  E  E  E  E
--------------------------|--------------------------|
--------------------------|--4-----------4-----------|
--4-----------4-----------|--------4-----------4-----|
--------4-----------4-----|--------------------------|


  E  E  E  E  E  E  E  E     E  E  E  E  E  E  E  E
--------------------------|--------------------------|
--4-----------4-----------|--2-----------2-----------|
--------4-----------4-----|--------2-----------2-----|
--------------------------|--------------------------|


  E  E  E  E  E  E  E  E     E  E  E  E  E  E  E  E
--------------------------|--------------------------|
--2-----------2-----------|--------------------------|
--------2-----------2-----|--2-----------2-----------|
--------------------------|--------2-----------2-----|


  E  E  E  E  E  E  E  E     E  E  E  E  E  E  E  E
--------------------------|--------------------------|
--------------------------|--0-----------0-----------|
--2-----------2-----------|--------0-----------0-----|
--------2-----------2-----|--------------------------|


  E  E  E  E  E  E  E  E     E  E  E  E  E  E  E  E
--------------------------|--------------------------|
--0-----------0-----------|--0-----------0-----------|
--------0-----------0-----|--------0-----------0-----|
--------------------------|--------------------------|


  E  E  E  E  E  E  E  E     E  E  E  E  E  E  E  E
--------------------------|--------------------------|
--0-----------0-----------|--------------------------|
--------0-----------0-----|--3-----------3-----------|
--------------------------|--------3-----------3-----|


  E  E  E  E  E  E  E  E     E  E  E  E  E  E  E  E
--------------------------|--------------------------|
--------------------------|--2-----------2-----------|
--3-----------3-----------|--------2-----------2-----|
--------3-----------3-----|--------------------------|


  E  E  E  E  E  E  E  E     E  E  E  E  E  E  E  E
--------------------------|--------------------------|
--2-----------2-----------|--------------------------|
--------2-----------2-----|--4-----------4-----------|
--------------------------|--------4-----------4-----|


  E  E  E  E  E  E  E  E     E  E  E  E  E  E  E  E
--------------------------|--------------------------|
--------------------------|--4-----------4-----------|
--4-----------4-----------|--------4-----------4-----|
--------4-----------4-----|--------------------------|


  E  E  E  E  E  E  E  E     E.  S E.  S E.  S E.  S
--------------------------|--4-----------4-----------|
--4-----------4-----------|--------4-----------4-----|
--------4-----------4-----|--------------------------|
--------------------------|--------------------------|


  E.  S E.  S E.  S E.  S    E.  S E.  S E.  S E.  S
--4-----------4-----------|--4-----------4-----------|
--------4-----------4-----|--------3-----------3-----|
--------------------------|--------------------------|
--------------------------|--------------------------|


  E.  S E.  S E.  S E.  S    E.  S E.  S E.  S E.  S
--4-----------4-----------|--9-----------9-----------|
--------3-----------3-----|--------9-----------9-----|
--------------------------|--------------------------|
--------------------------|--------------------------|


  E.  S E.  S E.  S E.  S    E.  S E.  S E.  S E.  S
--9-----------9-----------|--------------------------|
--------9-----------9-----|--9-----------9-----------|
--------------------------|--------9-----------9-----|
--------------------------|--------------------------|


  E.  S E.  S E.  S E.  S    E.  S E.  S E.  S E.  S
--------------------------|--------------------------|
--9-----------9-----------|--9-----------9-----------|
--------9-----------9-----|--------9-----------9-----|
--------------------------|--------------------------|


  E.  S E.  S E.  S E.  S    E.  S E.  S E.  S E.  S
--------------------------|--------------------------|
--9-----------9-----------|--9-----------9-----------|
--------9-----------9-----|--------8-----------8-----|
--------------------------|--------------------------|


  E.  S E.  S E.  S E.  S    E.  S E.  S E.  S E.  S
--------------------------|--9-----------9-----------|
--9-----------9-----------|--------9-----------9-----|
--------8-----------8-----|--------------------------|
--------------------------|--------------------------|


  E.  S E.  S E.  S E.  S    E.  S E.  S E.  S E.  S
--9-----------9-----------|--------------------------|
--------9-----------9-----|--9-----------9-----------|
--------------------------|--------9-----------9-----|
--------------------------|--------------------------|


  E.  S E.  S E.  S E.  S    E  E  E  E  E  E  E  E
--------------------------|--6-----------6-----------|
--9-----------9-----------|--------4-----------4-----|
--------9-----------9-----|--------------------------|
--------------------------|--------------------------|


  E  E  E  E  E  E  E  E     E  E  E  E  E  E  E  E
--6-----------6-----------|--4-----------4-----------|
--------4-----------4-----|--------4-----------4-----|
--------------------------|--------------------------|
--------------------------|--------------------------|


  E  E  E  E  E  E  E  E     E  E  E  E  E  E  E  E
--4-----------4-----------|--6-----------6-----------|
--------4-----------4-----|--------4-----------4-----|
--------------------------|--------------------------|
--------------------------|--------------------------|


  E  E  E  E  E  E  E  E     E  E  E  E  E  E  E  E
--6-----------6-----------|--4-----------4-----------|
--------4-----------4-----|--------4-----------4-----|
--------------------------|--------------------------|
--------------------------|--------------------------|


  E  E  E  E  E  E  E  E     E  E  E  E  E  E  E  E
--4-----------4-----------|--------------------------|
--------4-----------4-----|--------------------------|
--------------------------|--2-----------2-----------|
--------------------------|--------2-----------2-----|


  E  E  E  E  E  E  E  E     E  E  E  E  E  E  E  E
--------------------------|--------------------------|
--------------------------|--------------------------|
--2-----------2-----------|--2-----------2-----------|
--------2-----------2-----|--------2-----------2-----|


  E  E  E  E  E  E  E  E     E  E  E  E  E  E  E  E
--------------------------|--------------------------|
--------------------------|--------------------------|
--2-----------2-----------|--2-----------2-----------|
--------2-----------2-----|--------2-----------2-----|


  E  E  E  E  E  E  E  E     E  E  E  E  E  E  E  E
--------------------------|--------------------------|
--------------------------|--------------------------|
--2-----------2-----------|--2-----------2-----------|
--------2-----------2-----|--------2-----------2-----|


  E  E  E  E  E  E  E  E     E  E  E  E  E  E  E  E
--------------------------|--------------------------|
--------------------------|--2-----------2-----------|
--2-----------2-----------|--------2-----------2-----|
--------2-----------2-----|--------------------------|


  E  E  E  E  E  E  E  E     E  E  E  E  E  E  E  E
--------------------------|--------------------------|
--2-----------2-----------|--------------------------|
--------2-----------2-----|--2-----------2-----------|
--------------------------|--------2-----------2-----|


  E  E  E  E  E  E  E  E     E  E  E  E  E  E  E  E
--------------------------|--------------------------|
--------------------------|--0-----------0-----------|
--2-----------2-----------|--------0-----------0-----|
--------2-----------2-----|--------------------------|


  E  E  E  E  E  E  E  E     E  E  E  E  E  E  E  E
--------------------------|--------------------------|
--0-----------0-----------|--0-----------0-----------|
--------0-----------0-----|--------0-----------0-----|
--------------------------|--------------------------|


  E  E  E  E  E  E  E  E     E  E  E  E  E  E  E  E
--------------------------|--------------------------|
--0-----------0-----------|--------------------------|
--------0-----------0-----|--3-----------3-----------|
--------------------------|--------3-----------3-----|


  E  E  E  E  E  E  E  E     E  E  E  E  E  E  E  E
--------------------------|--------------------------|
--------------------------|--2-----------2-----------|
--3-----------3-----------|--------2-----------2-----|
--------3-----------3-----|--------------------------|


  E  E  E  E  E  E  E  E     E  E  E  E  E  E  E  E
--------------------------|--------------------------|
--2-----------2-----------|--------------------------|
--------2-----------2-----|--4-----------4-----------|
--------------------------|--------4-----------4-----|


  E  E  E  E  E  E  E  E     E  E  E  E  E  E  E  E
--------------------------|--------------------------|
--------------------------|--4-----------4-----------|
--4-----------4-----------|--------4-----------4-----|
--------4-----------4-----|--------------------------|


  E  E  E  E  E  E  E  E     E.  S E.  S E.  S E.  S
--------------------------|--4-----------4-----------|
--4-----------4-----------|--------4-----------4-----|
--------4-----------4-----|--------------------------|
--------------------------|--------------------------|


  E.  S E.  S E.  S E.  S    E.  S E.  S E.  S E.  S
--4-----------4-----------|--4-----------4-----------|
--------4-----------4-----|--------3-----------3-----|
--------------------------|--------------------------|
--------------------------|--------------------------|


  E.  S E.  S E.  S E.  S    E.  S E.  S E.  S E.  S
--4-----------4-----------|--9-----------9-----------|
--------3-----------3-----|--------9-----------9-----|
--------------------------|--------------------------|
--------------------------|--------------------------|


  E.  S E.  S E.  S E.  S    E.  S E.  S E.  S E.  S
--9-----------9-----------|--------------------------|
--------9-----------9-----|--9-----------9-----------|
--------------------------|--------9-----------9-----|
--------------------------|--------------------------|


  E.  S E.  S E.  S E.  S    E.  S E.  S E.  S E.  S
--------------------------|--------------------------|
--9-----------9-----------|--9-----------9-----------|
--------9-----------9-----|--------9-----------9-----|
--------------------------|--------------------------|


  E.  S E.  S E.  S E.  S    E.  S E.  S E.  S E.  S
--------------------------|--------------------------|
--9-----------9-----------|--9-----------9-----------|
--------9-----------9-----|--------8-----------8-----|
--------------------------|--------------------------|


  E.  S E.  S E.  S E.  S    E.  S E.  S E.  S E.  S
--------------------------|--9-----------9-----------|
--9-----------9-----------|--------9-----------9-----|
--------8-----------8-----|--------------------------|
--------------------------|--------------------------|


  E.  S E.  S E.  S E.  S    E.  S E.  S E.  S E.  S
--9-----------9-----------|--------------------------|
--------9-----------9-----|--9-----------9-----------|
--------------------------|--------9-----------9-----|
--------------------------|--------------------------|


  E.  S E.  S E.  S E.  S    E  E  E  E  E  E  E  E
--------------------------|--6-----------6-----------|
--9-----------9-----------|--------4-----------4-----|
--------9-----------9-----|--------------------------|
--------------------------|--------------------------|


  E  E  E  E  E  E  E  E     E  E  E  E  E  E  E  E
--6-----------6-----------|--4-----------4-----------|
--------4-----------4-----|--------4-----------4-----|
--------------------------|--------------------------|
--------------------------|--------------------------|


  E  E  E  E  E  E  E  E     E  E  E  E  E  E  E  E
--4-----------4-----------|--6-----------6-----------|
--------4-----------4-----|--------4-----------4-----|
--------------------------|--------------------------|
--------------------------|--------------------------|


  E  E  E  E  E  E  E  E     E  E  E  E  E  E  E  E
--6-----------6-----------|--4-----------4-----------|
--------4-----------4-----|--------4-----------4-----|
--------------------------|--------------------------|
--------------------------|--------------------------|


  E  E  E  E  E  E  E  E     E  E  E  E  E  E  E  E
--4-----------4-----------|--6-----------6-----------|
--------4-----------4-----|--------4-----------4-----|
--------------------------|--------------------------|
--------------------------|--------------------------|


  E  E  E  E  E  E  E  E     E  E  E  E  E  E  E  E
--6-----------6-----------|--4-----------4-----------|
--------4-----------4-----|--------4-----------4-----|
--------------------------|--------------------------|
--------------------------|--------------------------|


  E  E  E  E  E  E  E  E     E  E  E  E  E  E  E  E
--4-----------4-----------|--6-----------6-----------|
--------4-----------4-----|--------4-----------4-----|
--------------------------|--------------------------|
--------------------------|--------------------------|


  E  E  E  E  E  E  E  E     E  E  E  E  E  E  E  E
--6-----------6-----------|--4-----------4-----------|
--------4-----------4-----|--------4-----------4-----|
--------------------------|--------------------------|
--------------------------|--------------------------|


  E  E  E  E  E  E  E  E     E  E  E  E  E  E  E  E
--4-----------4-----------|--4-----------4-----------|
--------4-----------4-----|--------4-----------4-----|
--------------------------|--------------------------|
--------------------------|--------------------------|


  E  E  E  E  E  E  E  E     Q    H        Q
--4-----------4-----------|--4------------------||
--------4-----------4-----|---------------------||
--------------------------|---------------------||
--------------------------|---------------------||


NOTA:

Espero y te ayude en algo esta tab.

Si necesitas una tab en especial, escríbeme o visita...

http://www.myspace.com/alejandrolauyola




Duration Legend
---------------
W - whole
H - half
Q - quarter
E - 8th
S - 16th
T - 32nd
X - 64th
. - note dotted
|-n-|  - n-tuplets


Tablature Legend
----------------
L - tied note
x - dead note
g - grace note
(n) - ghost note
> - accentuded note
NH - natural harmonic
AH - artificial harmonic
TH - tapped harmonic
SH - semi harmonic
PH - pitch harmonic
h - hammer on
p - pull off
b - bend
br - bendRelease
pb - preBend
pbr - preBendRelease
brb - bendReleaseBend
n/ - tremolo bar dip
n - tremolo bar dive
-/n - tremolo bar Release up
/n - tremolo bar inverted dip
/n - tremolo bar return
-n - tremolo bar Release down
S - shift slide
s - legato slide
/ -  slide into from below or out of upwards
 -  slide into from above or out of downwards
~ - vibrato
W - wide vibrato
tr - trill
TP - tremolo picking
T - tapping
S - slap
P - pop
< - fade in
^ - brush up
v - brush down
Este fichero es trabajo propio de su transcriptor y representa su interpretación personal de la canción. El material contenido en esta página es para exclusivo uso privado, por lo que se prohibe su reproducción o retransmisión, así como su uso para fines comerciales.

Fuente: El extranjero: Letra y Acordes (LaCuerda.net)


Otras partituras que podrían interesarte: