acordes.cc 
 letras y acordes > b > los bunkers > el derecho de vivir en paz diccionario de acordes 
El derecho de vivir en paz de Los Bunkers
AUTOR: -?-
Los Bunkers Tabs
LaCuerda.net
imprimir El derecho de vivir en paz de Los Bunkers 
Intro:
G-A-G-A C Bm
 
1)
      G  A      G  A
El derecho de vivir
  C       Bm
poeta Oshimi
       G A      G    A  
Que golpea de Vietnam
  C              Bm
a toda la humanidad

2)
    Dm            Am
Ningún cañon borrara
   Cm             G
el zurco de tu arrosal

Coro
====
     G    A     G   A  Em
El derecho de vivir en paz

1)
Hiroshima es un lugar
más allá del ancho mar
Donde revienta la flor
con genocidio y dapuá

2)
La luna es una explosión
que funda todo el clamor

Coro
====
El derecho de vivir en paz

Punteo
======
    G            A       G        A        C                   Bm 
e---------------------------------------------------------------
B---------------------------------------------------------------
G-10/12-12-12/14-14-14/16-14-12-12-9/12-12-12-7/12-12-12-11--9-7-
D---------------------------------------------------------------
A---------------------------------------------------------------
E---------------------------------------------------------------
        G     A     G    A         C                 Bm
e--------------------------------------------------------
B--------------------------------------------------------
G-7/9-9-7--5-4--5-5/7-5-4-4-4/12-12-12--12-12/14--12-11---
D--------------------------------------------------------
A--------------------------------------------------------
E--------------------------------------------------------
        Dm             Am      Cm          G 
e--------------------------------------------------------
B--------------------------------------------------------
G-11-11-10--10-10-9-7-7/9--9-9-8--8-8-7-5-5/7------------
D--------------------------------------------------------
A--------------------------------------------------------
E--------------------------------------------------------
   G           A         G         A          Em         
e------------------------------------------------12-12----12-12----12-12----12-1
B------12----------14-------12----------14----12-------12-------12-------12-----
G-7/12----12-12/14----14-12----12-12/14----14-----------------------------------
D-------------------------------------------------------------------------------
A-------------------------------------------------------------------------------
E-------------------------------------------------------------------------------
    G         A        G       A            C                   Bm
e-12/15-15-15/17-17-17/19-17-15-15-12/15-15-15-9/15-15-15-14-12-10--------
B-----------------------------------------------------------------------
G-----------------------------------------------------------------------
D-----------------------------------------------------------------------
A-----------------------------------------------------------------------
E-----------------------------------------------------------------------
           G     A     G     A           C              Bm
e-10/12-12-10--8-7--8-8/10-8-7-7-7/15-15-15--15-15b--14-14----------------
B------------------------------------------------------------------------
G------------------------------------------------------------------------
D------------------------------------------------------------------------
A------------------------------------------------------------------------
E------------------------------------------------------------------------
           Dm                 Am           Cm                   G
e-12/14-14-13--13-13-12-10-10/12---9/12-12-11-7/11-11-11-10--8-8/10-----
B-----------------------------------------------------------------------
G-----------------------------------------------------------------------
D-----------------------------------------------------------------------
A-----------------------------------------------------------------------
E-----------------------------------------------------------------------
       G      A      G      A           Em
e-10-8-7--8-8/10b--8-7-8-8/10b-8-7-8-8/10b--8-7-8-8/10-8-7-8-8/10-8-7-8-8/10-
B----------------------------------------------------------------------------
G----------------------------------------------------------------------------
D----------------------------------------------------------------------------
A----------------------------------------------------------------------------
E----------------------------------------------------------------------------

1)
Hiroshima...

2)
La luna es una explosión....

Coro
====
El derecho de vivir en paz

1)
Y yo oro esta canción
es fuego de puro amor
Es palomo palomar
olivo del olivar

2)
Es el canto universal
cadena que hará triunfar

Coro
====
El derecho de vivir en paz

1)
LA LA LA LA LA...

2)
Es el canto universal
cadena que hará triunfar

Coro
====
El derecho de vivir en paz (3 veces)
Este fichero es trabajo propio de su transcriptor y representa su interpretación personal de la canción. El material contenido en esta página es para exclusivo uso privado, por lo que se prohibe su reproducción o retransmisión, así como su uso para fines comerciales.

Fuente: El derecho de vivir en paz: Letra y Acordes (LaCuerda.net)


Otras partituras que podrían interesarte: