acordes.cc 
 letras y acordes > a > alejandro filio > del infierno al cielo diccionario de acordes 
Del infierno al cielo de Alejandro Filio
AUTOR: Alejandro Filio
Alejandro Filio Tabs
LaCuerda.net
imprimir Del infierno al cielo de Alejandro Filio 
   D       A       Bm       F#m         
E|-----------------------------------------------2-------2-------
A|----------------0---------------2------------------------------
D|--0--------------------------------4-----------------4-------4-
g|----2-2-----------2---2-----2-2------4-----4-------2-------2---
b|--------3-----3-----3---2p0-----3------2h3-------2-------2-----
e|--2-------0-2---0----------------------------2-2-------2-------
   G         D         Em    F#m   G   E
E|-3---------------------------0-----0-2-----2-3-----0-----------
A|---------------------------------------------------------------
D|---0---0---0---0---------0-----2-------4-------0-----2---------
g|-----0---2-----2-----2-----2-----0-------2-------0-----1h3-----
b|-------------0---3-----3---------------------------------------
e|-------------------2---------------------------------------0---
   D       A*    Bm    F#m   G          A
E|-----------------------------2-------3-------------------------------
A|-------------0-------2--------------------------------0--------------
D|-----0-------------------4-------4-------------0---0----2------------
g|-----------------------4---4---2---2---0---0-----0--------2----------
b|-3-----3---3---2---2-3-------2---------------3--------------0h2s3---3
e|---0-2---3---2---0-------------------3---2------------------------0-

   D
E|---------------------------------
A|---------------------------------
D|-0---------------0-------0-------
g|---2---2---2---2---2---2---2---2-
b|-----3-------3-------3-------3---
e|-2-------2-------2-------2-------
             |por aquí empieza


       A    Bm    F#m
Del infierno al cielo nos vivimos
G           D                Em  A7
Jugando a la belleza y al dolor
Bm               F#m          G
   Del infierno al cielo en el delirio
Em          F#m    G       E
   Tejida la verdad, tejida la ilusión
       (D        A*    Bm       (LA parte entre paréntesis se toca 
Del infierno al cielo heridos    igual que la segunda parte del intro)
         G       A)            D-> aquí empieza de nuevo el intro completo
Como ángeles caídos de su Dios.

(este párrafo es igual que el primero)
Del infierno al cielo la esperanza
El miedo, la distancia y la pasión
Del infierno al cielo la balanza
Colgados de un tal vez, pendiendo de un adiós
Del infierno al cielo andamos
De la mano y sin bendición  (aquí cambia el ritmo, 
se toca de a dos cuerdas en cada acorde)

D-Em7-G-DsD*sD

D                E
Quién dicta cada regla
                      G
Quién hablara de un sueño
                   D
Quién pide algún perdón
                      E
Quién reza en esta espera
                       G
Quién busca en cada empeño
                D
Vendernos el amor

F#m              Bm
    Quién no torció el camino
    A/Bm       G          A
Haciendo del destino algo mejor
Bm             F#m        G   Em-A7        D ->principia intro
Quién abrirá las alas para volver          al sol

(aquí es lo mismo que en el primero)
Del infierno al cielo todavía
Bebiendo de este vaso otro ciclón
Del infierno al cielo y sin guarida
Robando libertad, rentando al corazón
Del infierno al cielo el llanto
Y entre tanto sólo una canción  (de aquí hace el mismo cambio de ritmo 
y repite el coro, al final se repite el intro y termina en el ultimo D 
en un rasgueo hacia arriba)

Los acordes raros son:

A*  002222
D*  xxx775
La [s] es slide: en la parte de DsD*sD se ase un slide en las tres
cuerdas al mismo tiempo, en la canción se oye perfectamente como lo
hace)
Este fichero es trabajo propio de su transcriptor y representa su interpretación personal de la canción. El material contenido en esta página es para exclusivo uso privado, por lo que se prohibe su reproducción o retransmisión, así como su uso para fines comerciales.

Fuente: Del infierno al cielo: Letra y Acordes (LaCuerda.net)


Otras partituras que podrían interesarte: