acordes.cc 
 letras y acordes > e > elefante > dejate seguir diccionario de acordes 
Dejate seguir de Elefante
AUTOR: Elefante
Elefante Tabs
LaCuerda.net
imprimir Dejate seguir de Elefante 
Aqui les va una rolita muy buena de este exlente grupo
y esta rola se la quiero dedicar a la mujer q mas amo en este mundo
alejandra esta rola es para ti chiquita.


Intro.

(rif 1)
e --------------------------------------------------------------------
b --------------------------------------------------------------------
g --------------------------------------------------------------------          
D --------------------------------------------------------------------
A --2---3---2---3---5---7---7--2---3---2---3---5---7---7--8-----------
E --------------------------------------------------------------------

(rif 2)
e ------0---1---3----5-----0---1---3----5-------0---1---3----5------0---1---3---
b ---3-------------------3--------------------3-------------------3-------------
g ------------------------------------------------------------------------------
D ------------------------------------------------------------------------------
A ------------------------------------------------------------------------------
E ------------------------------------------------------------------------------

(rif 1)
e --------------------------------------------------------------------
b --------------------------------------------------------------------
g --------------------------------------------------------------------          
D --------------------------------------------------------------------
A --2---3---2---3---5---7---7--2---3---2---3---5---7---7--8-----------
E --------------------------------------------------------------------



E
Al final no queda nada

y al llegar la madrugada
        F#m
te buscare
 D
deja que tus sueños vuelen.

(RIF 1)

E
 El tiempo va no se detiene

para aceptar lo que se tiene
         F#m
te extrañare
 D
dejame invadir tu espacio
 B
dejate seguir.

CORO:

G#m         A           E
 Para llevarte a las estrellas
G#m       A             E
 ara llegar a donde quieras
G#m       A           E
para tomarte prisionera
                F#m
y asi tener tu voz
                  C#m
bailando en mi cabeza
                  B
bailando en mi cabeza.

(RIF 1)

E
 y que mas da otra mañana

al despertar por la ventana
        F#m
te buscare
      D
que con la lluvia el sol se muere.

E
 El tiempo va no se detiene

y aceptar es suficiente
        F#m
te extrañare
 D
dejame invadir tu espacio
 B
dejame seguir.


G#m         A           E
 Para llevarte a las estrellas
G#m       A             E
 ara llegar a donde quieras
G#m       A           E
para tomarte prisionera
                F#m
y asi tener tu voz
                  C#m
bailando en mi cabeza
                  B
bailando en mi cabeza.

(RIF 2) Y (RIF 1)



G#m         A           E
 Para llevarte a las estrellas
G#m       A             E
 ara llegar a donde quieras
G#m       A           E
para tomarte prisionera
                F#m
y asi tener tu voz
                  C#m
bailando en mi cabeza
                  B    E
bailando en mi cabeza.

Y TERMINAMOS CON (RIF 1) X2





BUENO ESTA ES TODA LA ROLA QUIERO MANDAR UN SALUDO A SALAMANCA GUANAJUATO
YY ALEJANDRA TE AMO CON TODO MI CORAZON Y NO ME DARE POR VENCIDO HASTA QUE SEAS
MIA.
Este fichero es trabajo propio de su transcriptor y representa su interpretación personal de la canción. El material contenido en esta página es para exclusivo uso privado, por lo que se prohibe su reproducción o retransmisión, así como su uso para fines comerciales.

Fuente: Dejate seguir: Letra y Acordes (LaCuerda.net)


Otras partituras que podrían interesarte: