acordes.cc 
 letras y acordes > s > savia nueva > deja la vida volar diccionario de acordes 
Deja la vida volar de Savia Nueva
AUTOR: -?-
Savia Nueva Tabs
LaCuerda.net
imprimir Deja la vida volar de Savia Nueva 
Esta, es una de las mejores canciones de este grupo boliviano.
Para no complicarse con la introducción, se debe tocar esta canción
colocando capotraste en el segundo traste

Espero les guste
Sugerencias, abucheos, comentarios y demas a:
juanmanuelv@bolivia.com


INTRO

E|--5-----5--4-----4--2-----2--------------------------------------2--------
B|-----2--------2--------2-----5-----5--2-----2-----2-----------2-----2-----
G|--------------------------------2--------2-----4-----4-----2-----------2--
D|--4--------2--------------------------------------------------------------
A|--------------------5--------4--------------------------------------------
E|--------------------------------------5--------4--------2-----------------


E|--5-----5--4--2-----------------2--------------------------------2------------
B|-----2-----------5--2-----2--4-----4--2-----2-----2-----------2-----2---------
G|-----------------------2-----------------2-----4-----4-----2-----------2------
D|--4--------2------------------------------------------------------------------
A|--------------5--4-----------2-----------------------------------------------4
E|--------------------5-----------------5--------4--------2-----------------5---


F#m                   E                  F#m
En tu cuerpo flor de fuego tienes paloma
              B                   F#m
un temblor de primaveras palomitay
                       C#m   F#m
un volcan corre en tus venas


F#m               E                 F#m
Y mi sangre como braza tiene paloma
                    B                 F#m
en tu cuerpo quiere hundirme palomitay
                     C#m    F#m
hasta el fondo de mi sangre


              B        F#m
Y el sol morira, morira
              B        F#m
la noche vendra, vendra


Bm                      F#m
Envuelvete en mi cariño deja la vida volar
C#7                                       F#m
tu boca junto a mi boca paloma, palomitay
B        F#m B         F#m
ay palomay, ay palomay


F#m                   E                  F#m
En tu cuerpo flor de fuego tienes paloma
              B           F#m
una llamarada mia palomitay
                   C#m   F#m
que ha calmado mil heridas


F#m                 E                 F#m
Ahora pues volemos libres tierna paloma
               B                   F#m
no pierdas las esperanzas palomitay
                    C#m  F#m
la flor nace con el agua


              B        F#m
Y el sol volvera, volvera
              B        F#m
la noche se ira, se ira


Envuelvete ......
Este fichero es trabajo propio de su transcriptor y representa su interpretación personal de la canción. El material contenido en esta página es para exclusivo uso privado, por lo que se prohibe su reproducción o retransmisión, así como su uso para fines comerciales.

Fuente: Deja la vida volar: Letra y Acordes (LaCuerda.net)


Otras partituras que podrían interesarte: