acordes.cc 
 letras y acordes > a > amen > decir adios diccionario de acordes 
Decir Adios de Amen
AUTOR: -?-
Amen Tabs
LaCuerda.net
imprimir Decir Adios de Amen 
|---------------------------------------------------------------------------|
|---------------7-9-7-------7-------------------------10---9----7---5-------|
|-5----10--------------10-----10-------7----------------------------------5-|
|-------------------------------------------7--7-7--------------------------|

|-----------------------------------------------------------------------------|
|-----------------------------------------------------------------------------|
|-0-2---3----3----3----5------------------------3----3----3---3---3---5----5--|
|-----------3----3--------3-----0-3-0-3--5---5-----3---3-----------------5----|

|------------------------------------------------------------|
|------------------------------------------------------------|  X2
|---------------------------------------------------5------5-|
|--3---3-2-----2-0----0-7----7-7-8-----3---5------5----------|

|-----------------------------------------------------------------------------|
|------------------------5—5h7-5----5-----------------------------------------|
|-0-2-3---3---3---5----5----------7---7---3--3----3----3----3-3----5------5---|
|--------3---3--------3-------------------------3---3------------------5----5-|

Coro

|-------------------------------------------|
|-------------------------------------------| X3
|------------5--5----------3---3—3h5-3------|
|-3-----3-5-----0----0-3------------------5-|

|-----------------------------|
|-----------------------------|
|------------5--5----------3--|
|-3-----3-5-----0----0--------|

Solo
|------------------------------------------------------------|
|------------------------------------------------------------|
|---------------------------------------------------5------5-|
|--3---3-2-----2-0----0-7----7-7-8-----3---5------5----------|

|---------------------------------------------------------------------------|
|--------------------------------3—5/7—3------------------------------------|
|-3---3-----3-----3----5-------5-----------7--5—2---2-3------3-----5--------|
|----------3----3------------3--------------------------------------------5-|


Verso
|------------------------------------------------------------|
|------------------------------------------------------------|
|---------------------------------------------------5------5-|
|--3---3-2-----2-0----0-7----7-7-8-----3---5------5----------|

|---------------------------------------------------|
|---------------------------------------------------|
|--10--10-9---9-7----7-5----5-3-----------5------5--|
|----------------------------------3--3-5------5----|

|-----------------------------------------------------------------------------|
|-----------------------------—7-5--------------------------------------------|
|-0-2---3-----3----3---5----5------7-5---3--3----3----3---3-3---5---5----5----|
|----------3----3---------3--------------------3---3-------------------5----5-|

Coro y Final
|-------------------------------------------|
|-------------------------------------------|  X3
|------------5--5----------3---3—3h5-3------|
|-3-----3-5-----0----0-3------------------5-|

|----------------------------------------------------------------------------|
|--------------------------------------5—4h5-4-------------------------------|
|------------5--5--------3---5-----5-----------------7-------3-----5---------|
|-3-----3-5-----0----0----------------------------------------------------3--|

Mi video en Youtube tocando la cancion:
https://www.youtube.com/watch?v=YjyVG3e6E4U
Este fichero es trabajo propio de su transcriptor y representa su interpretación personal de la canción. El material contenido en esta página es para exclusivo uso privado, por lo que se prohibe su reproducción o retransmisión, así como su uso para fines comerciales.

Fuente: Decir Adios: Letra y Acordes (LaCuerda.net)


Otras partituras que podrían interesarte: