acordes.cc 
 letras y acordes > e > extremoduro > decidí diccionario de acordes 
Decidí de Extremoduro
AUTOR: -?-
Extremoduro Tabs
LaCuerda.net
imprimir Decidí de Extremoduro 
INTRO

G |-----------------|----------------|
D |-----------------|----------------|
A |-----------------|----------------|
E |--3-3-3-3-3-3-3-3|3-3-3-3-3-3-3---|

VERSO

G |------------------|-------------|------------|
D |------------------|-------------|------------|
A |------------------|-------------|------------|
E |-3-x-3---3-5-6-x-6|--6-3-1--1-x-|1--0-1-3----|

G |-------------------------------------|
D |-------------------------------------|
A |------------6-x-6---6-5-3--3-x-3--3-5|
E |-3-x-3--3-6--------------------------|

G |------------------|-------------|------------|
D |------------------|-------------|------------|
A |------------------|-------------|------------|
E |-3-x-3---3-5-6-x-6|--6-3-1--1-x-|1--0-1-3----|

G |-------------------------------------|
D |-------------------------------------|
A |------------6-x-6---6-5-3--3-x-3--3-5|
E |-3-x-3--3-6--------------------------|

G |-----------------|
D |-----------------|
A |5-5-5-5-5-5-5-5-5|
E |-----------------|

G |-----------------|------------------|----------------------|
D |-----------------|------------------|----------------------|
A |-----------------|------------------|----------------------|
E |---3----3-3-3-3-3|3-3-3-3--3-5-6-x-6|--6-3-1--1-x-1--0-1-3-|

G |---------------------|------------------|----------------|
D |---------------------|------------------|----------------|
A |---------------------|-------6-x-6---6-5|-3--3-x-3--3-5--|
E |-3----3-3-3-3-3-3-3-3|3--3-6------------|----------------|

G |-----------------|------------------|----------------------|
D |-----------------|------------------|----------------------|
A |-----------------|------------------|----------------------|
E |---3----3-3-3-3-3|3-3-3-3--3-5-6-x-6|--6-3-1--1-x-1--0-1-3-|

G |---------------------|------------------|----------------|
D |---------------------|------------------|----------------|
A |---------------------|-------6-x-6---6-5|-3--3-x-3--3-5--|
E |-3----3-3-3-3-3-3-3-3|3--3-6------------|----------------|

G |-----------------|
D |-----------------|
A |5-5-5-5-5-5-5-5-5|
E |-----------------|

PUENTE X2

G |------------------|------------------|---------------------|
D |------------------|------------------|---------------------|
A |---------------6--|6--6-6-6----------|----3---6-5-3--------|
E |-3---3---3-3-3----|---------6---6---6|6-6---3-------6-5-3--|

CORO

G |------------------|-----------------|--------|
D |------------------|-----------------|--3-4-5-|
A |---------------6--|--------------3-x|3-------|
E |-3---3---3-3-3----|------6-x-6-6----|--------|

G |---------------------------------------------|
D |------------------3-4-5----------------------|
A |-6----------3-x-3----------------------------|
E |---6-x-6-6-----------------------------------|

G |------------------------|
D |------------------3-4-5-|
A |-6----------3-x-3-------|
E |----6-x-6-6-------------|

G |-------------------------|
D |-------------------------|
A |--6----------3-x-3---5---|
E |-----6-x-6-6-------------|

SOLO

G |----------------------|------------------|
D |-5----5-3-------------|------------------|
A |----------6-5---------|----------3-x-3-3-|
E |-----------------0h3p5|--6-x-6-6---------|

G |----------------|-------------------------|
D |-5----5-3-------|-------------------------|
A |----------6-5---|---------------3-x-3-3---|
E |----------------|0h3p5--6-x-6-6-----------|

G |------------------|-----------------|---------|
D |------------------|-----------------|--3-4-5--|
A |---------------6--|--------------3-x|3--------|
E |-3---3---3-3-3----|------6-x-6-6----|---------|

G |--------------------------|
D |--------------------3-4-5-|
A |--6----------3-x-3--------|
E |-----6-x-6-6--------------|

CORO X2

G |-------|-------------|-----------------------|------------------|
D |-------|-------------|--3-4-5----------------|----3-4-5---------|
A |----6--|----------3-x|3----------6----------3|x-3---------------|
E |-------|--6-x-6-6----|--------------6-x-6-6--|------------------|

OUTRO

G |-----------------|
D |-----------------|
A |-----------------|
E |-3-3-3-3-3-3-3-3-|

Obviamente, esta transcripción no es exactamente igual
a la de la canción, fue una
aproximación que logré y DECIDÍ subir porque no
la encontré por ninguna parte. Espero
que sea útil y si necesitan otro tab, sugerencia o
corrección, pueden escribirme.

nelsoneduardo11@hotmail.com

LARGA VIDA A EXTREMODURO!
Este fichero es trabajo propio de su transcriptor y representa su interpretación personal de la canción. El material contenido en esta página es para exclusivo uso privado, por lo que se prohibe su reproducción o retransmisión, así como su uso para fines comerciales.

Fuente: Decidí: Letra y Acordes (LaCuerda.net)


Otras partituras que podrían interesarte: