acordes.cc 
 letras y acordes > a > attaque 77 > debilitándonos diccionario de acordes 
Debilitándonos de Attaque 77
AUTOR: Martínez, Demian Pertusi
Attaque 77 Tabs
LaCuerda.net
imprimir Debilitándonos de Attaque 77 
INTRO - PUNTEO

         C               F              D             G
e|-----------------|-------------|-------------|-------------|
B|-----------------|-8--6--5-----|-8--6--5-----|-8--6--5-----|
G|-4h5-5-4h5-5-4h5-|---5--5--7-5-|---5--5--7-5-|---5--5--7-5-|
D|-----------------|-------------|-------------|-------------|
A|-----------------|-------------|-------------|-------------|
E|-----------------|-------------|-------------|-------------|

         C               F              D             G
e|-----------------|-------------|-------------|-------------|
B|-----------------|-8--6--5-----|-8--6--5-----|-8--6--5-----|
G|-4h5-5-4h5-5-4h5-|---5--5--7-5-|---5--5--7-5-|---5--5--7-5-|
D|-----------------|-------------|-------------|-------------|
A|-----------------|-------------|-------------|-------------|
E|-----------------|-------------|-------------|-------------|

G     Em        G     Em      C      Em      D           C          D
Tu temor mayor tuve que llorar y me consumí absorvido en tu emoción.
G     Em        G     Em    C    Em    D             C           D
Tuve lo mejor, tuve lo peor y me consumí absorvido en mi emoción.
Em                  D       B Em D C
Todo terminó debilitándonos.

e|--------------------------10--------10-|
B|------------5-7-5-5---10-----10--10----|
G|-/7-7-7-4-7------7---7--7---7---7--7---|
D|---------------------------------------|
A|---------------------------------------|
E|---------------------------------------|


G        Em       G      C
Tuve que aceptar mi inseguridad
Em          D            C      D C
y me confundí absorvido en mi emoción.
G        Em         G      C
Si me nubla el sol tu recuerdo,
Em           D            C         D
hoy digo que al final estoy libre en donde estoy.
Em                  D       Bm Em D C
Todo terminó debilitándonos.

e|--------------------------10--------10-|
B|------------5-7-5-5---10-----10--10----|
G|-/7-7-7-4-7------7---7--7---7---7--7---|
D|---------------------------------------|
A|---------------------------------------|
E|---------------------------------------|

     C        F               D                G
e|-----------------------------------------------------------|
B|-----------------------------------------------------------|
G|-5-4---------4-5-4-------4-5-7-7-5-4----4-5-7-7-5-4--4-5-4-|x5
D|----7-5--5-7------5-7--7--------------7--------------------|
A|-----------------------------------------------------------|
E|-----------------------------------------------------------|

bueno gente, aca les dejo la coreccion de la otra version, que le faltaban
los riffs, el solo, y los acordes no estaban del todo bien
cualkier cosa escriben a mi mail
saludos para toda salta, aguante a77aque lokoo!!!
Este fichero es trabajo propio de su transcriptor y representa su interpretación personal de la canción. El material contenido en esta página es para exclusivo uso privado, por lo que se prohibe su reproducción o retransmisión, así como su uso para fines comerciales.

Fuente: Debilitándonos: Letra y Acordes (LaCuerda.net)


Otras partituras que podrían interesarte: