acordes.cc 
 letras y acordes > c > caifanes > debajo de tu piel diccionario de acordes 
Debajo de tu Piel de Caifanes
AUTOR: Saul Hernández, Saül Hernández
Caifanes Tabs
LaCuerda.net
imprimir Debajo de tu Piel de Caifanes 
intro:

        x7-A           x16-E  
e------------------|-----------------------------------------------|
B-------2-5-3-2----|-----------------------------------------------|
G-2-2-4---------4--|----1------------------------------------------|
D------------------|-----------------------------------------------|
A------------------|-----------------------------------------------|
E------------------|-----------------------------------------------|

A                 E|--5/7-5---------|
Si pudiera ver    
A
una lagrima
             G           A
mientras te beso entre incendios
         G          A
te abrazaria para subirnos con el humo

F
Abajo de tu piel hay esmeraldas conquistadas
Em
encima de mi piel hay una alfombra entre tus pies
F
abajo de tu piel yo resucito y me derrito
Em                                              Em7
encima de mi piel te guardo el aire que no hace da~o

      X4
e---------------|
B---------------|
G---------------|
D---------0-2---|
A-0-0-2-4-------|
E---------------|

A
Ven acercate
                        G
si pudieramos escupir cometas
                  A
le ganariamos al tiempo
     G
a la magia al destino
         A
a la distancia al olvido

F
Abajo de tu piel hay esmeraldas conquistadas
Em
encima de mi piel hay una alfombra entre tus pies
F
abajo de tu piel yo resucito y me derrito
Em                                              Em7
encima de mi piel te guardo el aire que no hace da~no
Este fichero es trabajo propio de su transcriptor y representa su interpretación personal de la canción. El material contenido en esta página es para exclusivo uso privado, por lo que se prohibe su reproducción o retransmisión, así como su uso para fines comerciales.

Fuente: Debajo de tu Piel: Letra y Acordes (LaCuerda.net)


Otras partituras que podrían interesarte: