acordes.cc 
 letras y acordes > c > catupecu machu > cuentos decapitados diccionario de acordes 
Cuentos Decapitados de Catupecu Machu
AUTOR: F. Ruiz Díaz, G. Ruiz Díaz, M. Sosa
Catupecu Machu Tabs
LaCuerda.net
imprimir Cuentos Decapitados de Catupecu Machu 
riff 1
e|----------------------|----------------------|
B|----------------------|----------------------|
G|-------5--------5-6-5-|-------5--------5-6-5-|
D|-6--8--6----6-8-------|-6--8--6----6-8-------|
A|-6--6-----------------|-6--6-----------------|
E|----------------------|----------------------|

riff 2
e|-4-4-4-3-3-3-1-1-1-3-3-3-|
B|-4-4-4-4-4-4-4-4-4-4-4-4-|
G|-------------------------|
D|-------------------------|
A|-------------------------|
E|-------------------------|


(riff 1)
puro, el paladar, se regocija entero
cristalizando algo eterno, en mis devociones
muchos sabores siguen
(riff 2)
sin nacer

(riff 2)
pideme todo lo que tu mas quieras
G#(PM)
y unas horas para malgastar
A#m             G#
pidemelo de la forma que quieras
G#(PM)
y algun lapso de tiempo inmortal

C#-C-D#  A#  D#

Gm                   G#
   Te empiezo a ver mas alla
Fsus4         Cm
mas aca te conozco hace tiempo
D#                    G#
dejo de espiar y te espero vivo
Fsus4     G#
      oh!
Gm          G#
   y yo se, oh!
Fsus4                Cm
que lo nuevo siempre vino corriendo
D#      G#
hace frio
Fsus4                    G#
una hoguera resplandeciendo

(riff 1)
tiro la roca al mar, que lleva mis deseos
busco en la trama el desconcierto, las emociones
cuentosd decapitados
(riff 2)
llevan mi nombre

pideme todo...

te empiezo a ver mas alla...


ACORDES:
   G#  A#m  C#  C  D#  A#  Gm  Fsus4  Cm
e|-4----1---4---0--6---1---3-----1----3--|
B|-4----2---6---1--8---3---3-----1----4--|
G|-5----3---6---0--8---3---3-----3----5--|
D|-6----3---6---2--8---3---5-----3----5--|
A|-6----1---4---3--6---1---5-----3----3--|
E|-4----x---x---x--x---x---3-----1----x--|

NOTA: la [PM] es para el palm mute
Este fichero es trabajo propio de su transcriptor y representa su interpretación personal de la canción. El material contenido en esta página es para exclusivo uso privado, por lo que se prohibe su reproducción o retransmisión, así como su uso para fines comerciales.

Fuente: Cuentos Decapitados: Letra y Acordes (LaCuerda.net)


Otras partituras que podrían interesarte: