acordes.cc 
 letras y acordes > s > soda stereo > cuando pase el temblor diccionario de acordes 
Cuando pase el temblor de Soda Stereo
AUTOR: Gustavo Cerati
Vota por Soda Stereo
100votos.com


Soda Stereo Tabs
LaCuerda.net
imprimir Cuando pase el temblor de Soda Stereo 

Tempo = 90

Bajo AFINACION: (EADG)


Solo hay que escucharla y seguirla, le puse la letra masomenos como guia
por si no se entienden los tiempos, espero que la disfruten..
saludos desde Salta Argentina

INTRO
|----------------------------------------------------|
|--------------------------------9--12----9----------|
|--------------------------------------------12------|
|----------------------------------------------------|


|----------------------------------------------------|
|----------------------------------------------------|
|--0-----------0-----------0--0--------0-------------|
|----------------------------------------------------|


----------------------------------------------------|
----------------------------------------------------|
----------------------------------------------------|
--3-----------3-----------3--3--------3-------------|


----------------------------------------------------|
----------------------------------------------------|
----------------------------------------------------|
--1-----------1-----------1--1--------1-------------|


----------------------------------------------------|
--2-----------2-----------2--2--------2-------------|
----------------------------------------------------|
----------------------------------------------------|

VERSO
Yo,                                           caminaré entre las piedras
----------------------------------------------------|----------------|
----------------------------------------------------|----------------|
--0-----------0-----------0--0--------0-------------|----------------|
----------------------------------------------------|-----3-----3----|

                                               hasta sentir el temblor,
----------------------------------------------------|----------------|
----------------------------------------------------|-----2-----2----|
----------------------------------------------------|----------------|
--1-----------1-----------1--1--------1-------------|----------------|


----------------------------------------------------|
--------------2-------------------------------------|
--3-------------------------------------------------|
--------------------------3--3--------3-------------|

                              en mis piernas...
----------------------------|
----------------------------|
-----------------------2s---|
----------------------------|
                                                    a veces

----------------------------------------------------|----------------|
--------------2-------------------------------------|--------0-------|
--3-----------------------3--3--------3-------------|-----1-----1----|
----------------------------------------------------|--3-------------|

            tengo temor,              lo sé          a veces vergüenza
----------------------------------------------------|----------------|
----------------------------------------------------|--------0-------|
--------------3-----------3--3--------3-------------|-----1-----1----|
----------------------------------------------------|--3-------------|


----------------------------------------------------|----------------|
--0-----------0-----------0--0--------0-------------|--3--3----------|
----------------------------------------------------|--------2-------|
----------------------------------------------------|----------------|

oh oh oh      Estoy
----------------|----------------------------------------------------|
----------------|----------------------------------------------------|
----------------|--0-----------0-----------0--0--------0-------------|
----------------|----------------------------------------------------|

sentado en un cráter desierto
----------------|----------------------------------------------------|
----------------|----------------------------------------------------|
----------------|----------------------------------------------------|
-----3-----3----|--1-----------1-----------1--1--------1-------------|

sigo aguardando el temblor
----------------|----------------------------------------------------|
-----2-----2----|--------------2-------------------------------------|
----------------|--3-------------------------------------------------|
----------------|--------------------------3--3--------3-------------|

                              en mi cuerpo...
----------------------------|
----------------------------|
-----------------------2s---|
----------------------------|

                                                     nadie
----------------------------------------------------|----------------|
--------------2-------------------------------------|--------0-------|
--3-----------------------3--3--------3-------------|-----1-----1----|
----------------------------------------------------|--3-------------|

           me vio partir             lo sé             nadie me espera
----------------------------------------------------|----------------|
----------------------------------------------------|--------0-------|
--------------3-----------3--3--------3-------------|-----1-----1----|
----------------------------------------------------|--3-------------|

                                                       oh oh oh......
----------------------------------------------------|----------------|
--0-----------0-----------0--0--------0-------------|--3--3----------|
----------------------------------------------------|--------2-------|
----------------------------------------------------|----------------|

hay una grieta
----------------------------------------------------|
--2-----------2-----------2--2--------2-------------|
----------------------------------------------------|
----------------------------------------------------|

                     en mi corazón
----------------------------------------------------|
----------------------------------------------------|
--2-----------2-----------2--2--------2-------------|
----------------------------------------------------|

un planeta
----------------------------------------------------|
--2-----------2-----------2--2--------2-------------|
----------------------------------------------------|
----------------------------------------------------|

                   con disolución
----------------------------------------------------|
----------------------------------------------------|
--2-----------2-----------2--2--------2-------------|
----------------------------------------------------|


----------------------------------------------------|
----------------------------------------------------|
--3-----------3-----------3--3--------3-------------|
----------------------------------------------------|


----------------------------------------------------|
----------------------------------------------------|
--------------3-----------3--3--------3-------------|
----------------------------------------------------|


----------------------------------------------------|
----------------------------------------------------|
--------------3-----------3--3--------3-------------|
----------------------------------------------------|


----------------------------------------------------|
----------------------------------------------------|
--------------3-----------3--3--------3-------------|
----------------------------------------------------|

Se                                    que te encontraré en esas ruinas
----------------------------------------------------|----------------|
----------------------------------------------------|----------------|
--0-----------0-----------0--0--------0-------------|----------------|
----------------------------------------------------|-----3-----3----|

                                            ya no tendremos que hablar
----------------------------------------------------|----------------|
----------------------------------------------------|-----2-----2----|
----------------------------------------------------|----------------|
--1-----------1-----------1--1--------1-------------|----------------|

(que hablar)
----------------------------------------------------|
--------------2-------------------------------------|
--3-------------------------------------------------|
--------------------------3--3--------3-------------|

                              del temblor
----------------------------|
----------------------------|
-----------------------2s---|
----------------------------|

                                         te besaré en el temblor (lo sé)
----------------------------------------------------|----------------|
--------------2-------------------------------------|--------0-------|
--3-----------------------3--3--------3-------------|-----1-----1----|
----------------------------------------------------|--3-------------|

                                            será un buen momento
----------------------------------------------------|----------------|
----------------------------------------------------|--------0-------|
--------------3-----------3--3--------3-------------|-----1-----1----|
----------------------------------------------------|--3-------------|

                                                        oh oh oh....
----------------------------------------------------|----------------|
--0-----------0-----------0--0--------0-------------|--3--3----------|
----------------------------------------------------|--------2-------|
----------------------------------------------------|----------------|


hay una grieta
----------------------------------------------------|
--2-----------2-----------2--2--------2-------------|
----------------------------------------------------|
----------------------------------------------------|

                     en mi corazón
----------------------------------------------------|
----------------------------------------------------|
--2-----------2-----------2--2--------2-------------|
----------------------------------------------------|

un planeta
----------------------------------------------------|
--2-----------2-----------2--2--------2-------------|
----------------------------------------------------|
----------------------------------------------------|

                   con disolución
----------------------------------------------------|
----------------------------------------------------|
--2-----------2-----------2--2--------2-------------|
----------------------------------------------------|



----------------------------------------------------|
----------------------------------------------------|
--3-----------3-----------3--3--------3-------------|
----------------------------------------------------|


----------------------------------------------------|
----------------------------------------------------|
--------------3-----------3--3--------3-------------|
----------------------------------------------------|


----------------------------------------------------|
----------------------------------------------------|
--------------3-----------3--3--------3-------------|
----------------------------------------------------|


----------------------------------------------------|
----------------------------------------------------|
--------------3-----------3--3--------3-------------|
----------------------------------------------------|


----------------|----------------|
----------------|----------------|
----------------|----------------|
----------------|----------------|


----------------------------------------------------|
----------------------------------------------------|
--0-----------0-----------0--0--------0-------------|
----------------------------------------------------|


----------------------------------------------------|
----------------------------------------------------|
----------------------------------------------------|
--3-----------3-----------3--3--------3-------------|


----------------------------------------------------|
----------------------------------------------------|
----------------------------------------------------|
--1-----------1-----------1--1--------1-------------|


----------------------------------------------------|
--2-------------------------------------------------|
----------------------------------------------------|
--------------0-----------0--0--------0-------------|

Oh oh oh oh oh oh oh
--------------------------------------0-------------|----------------|
-----------------------------2----------------------|--0--0----------|
--3-----------3-----------3-------------------------|--------1--1----|
----------------------------------------------------|----------------|

Oh oh oh oh oh oh oh
--------------------------------------0-------------|----------------|
-----------------------------2----------------------|--0--0----------|
--3-----------3-----------3-------------------------|--------1--1----|
----------------------------------------------------|----------------|

el temblor (despiértame)
--------------------------------------0-------------|----------------|
-----------------------------2----------------------|--0--0----------|
--3-----------3-----------3-------------------------|--------1--1----|
----------------------------------------------------|----------------|

cuando pase el temblor
--------------------------------------0-------------|----------------|
-----------------------------2----------------------|--0--0----------|
--3-----------3-----------3-------------------------|--------1--1----|
----------------------------------------------------|----------------|

(despiértame) cuando pase el temblor
--------------------------------------0-------------|----------------|
-----------------------------2----------------------|--0--0----------|
--3-----------3-----------3-------------------------|--------1--1----|
----------------------------------------------------|----------------|

(despiértame) cuando pase el temblor
--------------------------------------0-------------|----------------|
-----------------------------2----------------------|--0--0----------|
--3-----------3-----------3-------------------------|--------1--1----|
----------------------------------------------------|----------------|

despiértame
--------------------------------------0-------------|----------------||
-----------------------------2----------------------|--0--0----------||
--3-----------3-----------3-------------------------|--------1--1----||
----------------------------------------------------|----------------||

joaquinalanis10@gmail.com
Este fichero es trabajo propio de su transcriptor y representa su interpretación personal de la canción. El material contenido en esta página es para exclusivo uso privado, por lo que se prohibe su reproducción o retransmisión, así como su uso para fines comerciales.

Origen: Cuando pase el temblor: Letra y Acordes (LaCuerda.net)


Otras partituras que podrían interesarte: