acordes.cc 
 letras y acordes > d > divididos > cristófolo cacarnu diccionario de acordes 
Cristófolo Cacarnu de Divididos
AUTOR: Diego Arnedo, F. GilSola, Ricardo Mollo
Divididos Tabs
LaCuerda.net
imprimir Cristófolo Cacarnu de Divididos 
Intro:

e------------------------------------------------------
A------------------------------------------------------
D------------------------------------------------------
G------------------------------------------------------
B--5/7-5---5--------5/7-5---5-----------------------5--
E--------8---8-7-5--------8---8-7-5-0-7-0-8-0-5-7-8----

e-------------------------------------------------
A-------------------------------------------------
D-------------------------------------------------
G-------------------------------------------------
B---------------------5-5/7---------------------5-
E-0-5-0-7-0-8-0-5-7-8-------5-0-7-0-8-0-5-7-8-----


                  E7/9 
e----------------------/
A------------------8---/
D------------------7---/
G------------------6---/
B------------------7---/
E--0-5-0-7-0-8-8-------/




Am                        G
  ¿Qué pensás reina Isabel
Am                        G
   de tu historia de papel?
Am              G
   tu museo no huele bien
Am                           G
   hoguera, quema, libro y piel

    Dm                    Am
Sos él, el primer trabajador
Dm                   E7/9 
  Cristófolo Carcarnú

Intermedio

e----------------------------------------/
A----------------------------------------/
D----------------------------------------/
G----------------------------------------/ X2
B----------------7-0-5-------------5-6-7-/
E--0-5-0-7-0-8-0-------0-5-0-7-0-8-------/




Am                         G
   ¿Que pensas reina Isabel
Am                       G
   de la papa y el cacao?
Am                      G
   de esos indios en bolas
Am                   G
   y del pico del tucán

   Dm                    Am
Es él, el primer trabajador
Dm                    E7/9 
   Cristófolo Carcarnú


Intermedio
Este fichero es trabajo propio de su transcriptor y representa su interpretación personal de la canción. El material contenido en esta página es para exclusivo uso privado, por lo que se prohibe su reproducción o retransmisión, así como su uso para fines comerciales.

Fuente: Cristófolo Cacarnu: Letra y Acordes (LaCuerda.net)


Otras partituras que podrían interesarte: