acordes.cc 
 letras y acordes > r > la rondalla de saltillo > corazón de roca diccionario de acordes 
Corazón De Roca de la Rondalla de Saltillo
AUTOR: Gabriel Luna Fuenta
la Rondalla de Saltillo Tabs
LaCuerda.net
imprimir Corazón De Roca de la Rondalla de Saltillo 
¡Dedicada para Janeth el amor de mi vida!

Solo para Mortales


e---0-2-3--2-0-3-2-0--5--------------
B-3----------------------------------
G------------------------------------
D------------------------------------
A------------------------------------
E------------------------------------ (se repite)

e-7-5-7-2---7-6-5--2-----------------
B------------------------------------
G------------------------------------
D------------------------------------
A------------------------------------
E------------------------------------

        C          Am         Dm
Como saber comprender tu querer
G7      C          Am         Dm
como lograr que te fijes en mi,
G7       C            Am      Dm
si ni siquiera has querido mirarme,
G7           C        Am      Dm
tampoco escucharme mujer caprichosa
G7              C          Am          Dm
es por que te hicieron de piedra  o de roca,
G7
ese corazon

C Am Dm G7
            C        Am      Dm  G7
Aun que de hielo sea tu corazon,
         C           Am        Dm  G7
yo te dedico esta humilde cancion,
          C       Am          Dm
aunque parece que tu no la escuchas,
G7              C          Am      Dm
yo se bien que finges por ser orgullosa
G7               C         Am         Dm
es por que te hicieron de piedra o de roca,
G7      C   Am Dm G7
ese corazon.

e---0-2-3-5-3-2-0--3-5-3-2-0-5-------
B--3---------------------------------
G------------------------------------
D------------------------------------
A------------------------------------
E------------------------------------

e-7-5-7-2---7-6-5--2-----------------
B------------------------------------
G------------------------------------
D------------------------------------
A------------------------------------
E------------------------------------

    C  Am Dm
Yo se,
            G7            C       Am  Dm G7
que es imposible que me quieras ami,
  C   Am       Dm           G7
amor, no llegaras a comprender,
          C        Am          Dm  G7
 y sin embargo te llevo en mi ser,
         C        Am      Dm  G7
como sentida y humilde razon,
            C          Am
es que te hicieron de roca
      Dm    G7       C
y no puedes tener corazon.
Este fichero es trabajo propio de su transcriptor y representa su interpretación personal de la canción. El material contenido en esta página es para exclusivo uso privado, por lo que se prohibe su reproducción o retransmisión, así como su uso para fines comerciales.

Fuente: Corazón De Roca: Letra y Acordes (LaCuerda.net)


Otras partituras que podrían interesarte: