acordes.cc 
 letras y acordes > c > el canto del loco > contigo diccionario de acordes 
Contigo de El Canto del Loco
AUTOR: El Canto del Loco, Dani Martín
El Canto del Loco Tabs
LaCuerda.net
imprimir Contigo de El Canto del Loco 
e|-----------------|--------------|---------------3--|
G|----6--5---1--3--|----6--5----3-|------------------|
B|-----------------|----------2---|--5----------3----|
D|-----------------|--------------|-----5---7--------|
A|--0--------------|--3-----------|--3---------------|
E|-----------------|--------------|------------------|

e|----------------|--1----------|
G|--6--5----------|-----3---2---|
B|--------5---(3)-|---------2---|
D|----------------|-------------|
A|------------(1)-|-------------|
E|----------------|-------------|

  Bm                    Em
Contigo, quiero estar contigo
    A                              G   F#
Y decirte que ya no puedo vivir sin ti
   Bm                    Em
Contigo, quiero ganar contigo
     A                                    G      F#
Y conseguir que todo el tiempo sea estar junto a ti
    Em   LA               D    G
Contigo, quiero estar contigo
      Em                           G    F#
Y decirte que ya no puedo vivir sin ti.


   G     F#     Bm     A
Y sólo quiero vivir contigo
   G     F#     Bm     A
Y sólo quiero bailar contigo
   G     F#     Bm     A
Sólo quiero estar contigo
  G                  F#
Y quiero ser lo que nunca he sido.

   G    F#    Bm     A
Sólo quiero soñar contigo
  G    F#    Bm      A
Sólo voy a cantar contigo
   G    F#      Bm     A
Lo voy a hacer todo contigo
G                    F#
Ya ves, sé lo que me digo
 Em              F#m          G            F#m
Siento cuando estás, y tú me das tu voz con esa fuerza
Em           F#m         G         F#         Bm
Quiero oírte más tu voz gritar ese susurro loco.

e|---------------------------------------
G|---------------------------------6--8--
B|-----------------6--8--8h6-------------
D|----7/9/7-----7-------------7----------
A|---------------------------------------
E|---------------------------------------

e|-------------------------------------------|
G|----------------------------------8h----5--|
B|--------5-------------------6-----------6--|
D|--5/7----------------5--7------------------|
A|------------3/5---7------------------------|
E|-------------------------------------------|


Bm                         Em
Contigo, quiero escuchar contigo
     A                              G      F#
Esta canción que solamente habla de ti y de mí
   Bm                   Em
Contigo, lo soy todo contigo
    A                                 G   F#
Me haces falta y ya no puedo vivir sin ti
    Em   A              D     G
Contigo, quiero estar contigo
     Em                            G   F#
Y decirte que ya no puedo vivir sin ti.


   G     F#    Bm     A
Y sólo quiero vivir contigo
   G     F#     Bm      A
Y sólo quiero bailar contigo
   G   F#     Bm     A
Sólo quiero estar contigo
  G                  F#
Y quiero ser lo que nunca he sido.

   G    F#    Bm     A
Sólo quiero soñar contigo

  G   F#     Bm     A
Sólo voy a cantar contigo
  G     F#     Bm      A
Lo voy a hacer todo contigo
 G                  F#
Ya ves, sé lo que me digo
 Em              F#m         G            F#m
Siento cuando estás, y tú me das tu voz con esa fuerza
Em          F#m         G
Quiero oírte más tu voz gritar.
Este fichero es trabajo propio de su transcriptor y representa su interpretación personal de la canción. El material contenido en esta página es para exclusivo uso privado, por lo que se prohibe su reproducción o retransmisión, así como su uso para fines comerciales.

Fuente: Contigo: Letra y Acordes (LaCuerda.net)


Otras partituras que podrían interesarte: