acordes.cc 
 letras y acordes > d > divididos > cielito lindo diccionario de acordes 
Cielito Lindo de Divididos
AUTOR: Traditional
Divididos Tabs
LaCuerda.net
imprimir Cielito Lindo de Divididos 
Intro:

E|-3-3--------|-3-3----------|-3-3----------|
B|-5-5--5-7-5-|-5-5--5-7-5---|-5-5--5-7-3-1-|
G|------5-7-5-|------5-7-5---|------5-7-4-2-|
D|------------|--------------|--------------|
A|------------|--------------|--------------|
e|------------|--------------|--------------|

E|-------------------|----------------|
B|-7-7-7-7--5-5--3---|-3h5h3--3--3--2-|
G|-7-7-7-7--5-5--4---|-4-----4--4--1--|
D|-------------------|----------------|
A|-------------------|----------------|
e|-------------------|----------------|

G 

E|-----7-|
B|--8--8-|
G|--9----|
D|-------|
A|-------|
e|-------|

Ese es el final del intro. La cancion es una melodia muy simple.

G
Ese lunar que tienes
                          D
cielito lindo junto a tu boca
no se lo des a nadie
                   G
cielito lindo a mi me toca

G
Ese lunar que tines
                          D
cielito lindo junto a tu boca
no se lo des a nadie
                   G
cielito lindo a mi me toca

Estibillo:

G            C D               G
Ay, ay, ay, ay  canta y no llores
                       C
por que cantando se alegran
         D              G
cielito lindo los corazones


G5           C5 D5               G5
Ay, ay, ay, ay     canta y no llores
                       C5
por que cantando se alegran
         D5             G5
cielito lindo los corazones


Despues gritan ¡1, 2, 3....  1, 2, 3, va....!

G5            C5 D5               G5
Ay, ay, ay, ay      canta y no llores
                      C5
por que cantando se alegran
B5         C5    C#5                  G
cieeeeee liiiii to     lindo los corazones
Este fichero es trabajo propio de su transcriptor y representa su interpretación personal de la canción. El material contenido en esta página es para exclusivo uso privado, por lo que se prohibe su reproducción o retransmisión, así como su uso para fines comerciales.

Fuente: Cielito Lindo: Letra y Acordes (LaCuerda.net)


Otras partituras que podrían interesarte: