acordes.cc 
 letras y acordes > k > kjarkas > chuquiagu marka diccionario de acordes 
Chuquiagu marka de Kjarkas
AUTOR: Gonzalo y ulices hermosa
Kjarkas Tabs
LaCuerda.net
imprimir Chuquiagu marka de Kjarkas 
Punteo del charango y posiciones de acordes

Espero lo entiendan bien...por que esta buenísimo es el tono
original. Saludos!!! a todos mis amigos(as) de la Facultad de
Ingeniería de la U.M.S.A.

El “=” quiere decir q toquen esa nota bien seguido casi al
mismo tiempo... si oyeron el disco se van a ubicar...esas notas
encima de la tablatura son de la guitarra.

Introducción en el Charango:

1ro   SOLm    FA          SOLm         FA          SOLm
e:*|---------0/1-1-1------------------0/1-1-1--------
A:*|---1---1-----------1--------1---1-----------1----
E:*|-------------------------------------------------
C:*|-----2-----------0------------2-----------0------
G:*|-0-------------------0----0-------------------0--

2do  SOLm       FA       DOm       SOLm
e:*|-3=3-6-5-3-1---1----5=5-8-6-5-6-3-6--
A:*|-------------------------------------
E:*|-------------------------------------
C:*|-------------2-----------------------
G:*|-------------------------------------

3ro         SIb       FA      SOLm
e:*|-3---3-6-1---1--------------     (x2  2do  y 3ro)
A:*|-------------------1-0-1----
E:*|----------------------------
C:*|---3-------2---2-0----------
G:*|-------------------------0--

Luego viene un tremolo: La (T) significa un tremolo seguido
las notas que no están con la (T) son solo un rasgueo hacia abajo.

SOLm-SOLm-SOLm-Remd(T)-Domd(T)-SIm2(T)-LAm2(T)-SOLm
SOLm-SOLm-SOLm-Remd(T)-Domd(T)-SIm2(T)-LAm2(T)-SOLm

SOLm    Remd    Domd    SIm2    LAm2
E:-3-   E:-10-  E:-8-   E:-6-   E:-5-
A:-1-   A:-8-   A:-6-   A:-5-   A:-3-
E:-3-   E:-10-  E:-8-   E:-6-   E:-5-
C:-2-   C:-9-   C:-6-   C:-5-   C:-4-
G:-0-   G:-0-   G:-0-   G:-0-   G:-0-

Estas son las notas de la guitarra mientras el charango hace
la parte del tremolo después del punteo.

Solm SibM FaM Solm
SOLm SIb  FA  SOLm


SOLm            DOm
Chuquiago Marka nunca te olvide
RE#            SIb 
Mi tierra querida
SOLm                DOm
Bienes de las cosas del primer amor
RE#              SIb 
Que nunca se olvidan

DOm               SOLm
No quiero morirme sin volverte a ver
FA              SOLm
Mi Chuquiago Marka
         SIb 
Ay ya ya yay
FA              SOLm
Mi Chuquiago Marka
         SIb 
Ay ya ya yay
FA              SOLm
Mi Chuquiago Marka

SOLm              DOm
Eres luz del Ande ciudad de La Paz
RE#               SIb 
Con tu poncho blanco
SOLm               DOm
Duerme el Illimani su sueño feliz
RE#            SIb 
Historia de piedra

DOm               SOLm
No quiero morirme sin volverte a ver
FA              SOLm
Ni la paz del alma
         SIb 
Ay ya ya yay
FA              SOLm
Ni la paz del alma
         SIb 
Ay ya ya yay
FA       SOLm
Ay ya ya yayyyyyy

Zampoñas:
SOLm RE# -SIb  SOLm RE# -SIb 
Solm Re#M-SibM FaM Solm
SOLm SIb  FA  SOLm
Solm SibM FaM Solm

SOLm              DOm
Eres luz del Ande ciudad de La Paz
RE#               SIb 
Con tu poncho blanco
SOLm               DOm
Duerme el Illimani su sueño feliz
RE#            SIb 
Historia de piedra

DOm               SOLm
No quiero morirme sin volverte a ver
FA              SOLm
Ni la paz del alma
         SIb 
Ay ya ya yay
FA              SOLm
Ni la paz del alma
         SIb 
Ay ya ya yay
FA       SOLm
Ay ya ya yayyyyyy

SOLm            DOm
Chuquiago Marka nunca te olvide
RE#            SIb 
Mi tierra querida
SOLm                DOm
Bienes de las cosas del primer amor
RE#              SIb 
Que nunca se olvidan

DOm               SOLm
No quiero morirme sin volverte a ver
FA              SOLm
Ni la paz del alma
         SIb 
Ay ya ya yay
FA              SOLm
Ni la paz del alma
         SIb 
Ay ya ya yay
FA       SOLm
Ay ya ya yayyyyyy

Zampoñas:
SOLm RE# -SIb  SOLm RE# -SIb 
Solm Re#M-SibM FaM Solm
SOLm SIb  FA  SOLm
Solm SibM FaM Solm
Luego la zampoña acelera pero las notas son las mismas...

GUITARRA RE#                    CHARANGO RE# 

e:*|-0-|---|-0-|---|--          e:*|---|---|-0-|---
B:*|-0-|---|---|-0-|--          A:*|-0-|---|---|---
G:*|-0-|---|-0-|---|--          E:*|---|---|-0-|---
D:*|-0-|---|---|---|--          C:*|---|---|-0-|---
A:*|-0-|---|---|---|--          G:*|---|---|---|---
E:*|-0-|---|---|---|--

Cualquier duda, sugerencia o queja me la hacen llegar a mi
correo x0_Kenneth_0x@hotmail.com chau!!!
----------------------------------------------------
Viva la Musica Andina Latinoamericana
Un Aporte desde la Universidad Nacional de Ingenieria
----------------------------------------------------
Este fichero es trabajo propio de su transcriptor y representa su interpretación personal de la canción. El material contenido en esta página es para exclusivo uso privado, por lo que se prohibe su reproducción o retransmisión, así como su uso para fines comerciales.

Fuente: Chuquiagu marka: Letra y Acordes (LaCuerda.net)


Otras partituras que podrían interesarte: