acordes.cc 
 letras y acordes > l > luis alberto spinetta > cheques diccionario de acordes 
Cheques de Luis Alberto Spinetta
AUTOR: -?-
Luis Alberto Spinetta Tabs
LaCuerda.net
imprimir Cheques de Luis Alberto Spinetta 
Riff Principal

G-|---------------------------------------|
D-|-------------------------------2--1----|
A-|---------------0---0--2--0--2--------2-|
E-|--0--0-0-4-2-0-------------------------|

G-|---------------------------------------|
D-|------------------------------2--1-----|
A-|--------------------0---0--2--------2--|
E-|--0--0---0--4--2--0--------------------|

Final Riff principal
G-|-----------------------------|
D-|-----------------------------|
A-|-----------------0-----------|
E-|--0--0--4--2--0--------------|

Versos
G-|---------------------------------------------------------|
D-|-------------------------------(5)-----------------------|
A-|-----------------------------------------------3---------|
E-|--0--0-----x--0--0-0---------5--5-----------------3-x-3--| (opcional)

Solo
G-|-------------------------------------------------|
D-|-------------------8-7---------------------------|
A-|-----7-7-10-7-9-7-7-----10-9-7-9-7-9-10---0-0----|
E-|-------------------------------------------------|


Acordes final del solo

G-|--18--18---16--16-|-18-16-18-21-|
D-|--18--18---16--16-|-18-16-18-21-|
A-|------------------|-------------|
E-|--17--17---15--15-|-17-15-17-20-|
Este fichero es trabajo propio de su transcriptor y representa su interpretación personal de la canción. El material contenido en esta página es para exclusivo uso privado, por lo que se prohibe su reproducción o retransmisión, así como su uso para fines comerciales.

Fuente: Cheques: Letra y Acordes (LaCuerda.net)


Otras partituras que podrían interesarte: